Korn - Freak On A Leash Chords & Tabs

 

Freak On A Leash Chords & Tabs

Korn Chords & Tabs

Version: 4 Type: Tab 0 ratings
1 star 2 stars 3 stars 4 stars 5 stars
comments

Freak On A Leash Tab

   
RIFF
--------------17------------------------15------------
-----15--------------16-----------16------------------ x16
------------------------------------------------------
------------------------------------------------------
------------------------------------------------------
------------------------------------------------------



BREAK
------------------------------------------------------
------------------------------------------------------
-----11/12-----11-------11------------8---------------
----- +/+ ----- + ------ + --X2X----- + --------------
------9/10------9--------9------------6---------------
----------------------0-------------------------------


CHOURS
[ Tab from: http://www.guitartabs.cc/tabs/k/korn/freak_on_a_leash_tab_ver_4.html ]
   AAAAAAAA   EEE    (F)(F)(F)(F)(F)   X4



BRIDGE


------------------------------------------------------
------------------------------------------------------
------------------------------------------------------
-----7----8----9----10--------------------------------X 3
-----7----8----9----10--------------------------------
-----7----8----9----10--------------------------------


------------------------------------------------------
------------------------------------------------------
------------------------------------------------------
----7-----8----7----6---------------------------------
----7-----8----7----6---------------------------------
----7-----8----7----6---------------------------------




ANY QUESTIONS EMAIL ME AT TELBOY88@AOL.COM

           KoRn RULE !!!!!
Comments