Korn - Freak On A Leash Chords & Tabs

 

Freak On A Leash Chords & Tabs

Korn Chords & Tabs

Version: 2 Type: Tab 1 rating
1 star 2 stars 3 stars 4 stars 5 stars
comments

Freak On A Leash Tab

Artist: Korn
Song: Freak on a Leash
I'm apalled at all the wrong tabs for the most popular Korn song out 
there. You people need to write some decent tabs. And everything
Korn writes is in ADGCFAD for 7 strings (the only exception is
Alone i Break where they play in down 1 1/2 steps instead of just 1)
Anyone without a seven string or anyone whining about detuning has
no business, in my opinion, misleading others with their bullcrap Korn
tabs.

Intro/Verse *this note has delay on it in intro; after vocals start 
it is normal distortion, and when the drums pick up again there is 
a phaser on high speed thrown onto it.
** these notes are played w/whammy pedal
D------19--------------------
A-17-------18*----------17**-
F------------------15**------
C--------------15**----------

PreChorus
Gtr 1
C-6/76---6--6/76---6--3-
G-x-x-x---x--x-x-x---x--x-
D-4/54-0-4--4/54-0-4--1-

Gtr2
F-13/1413---13--13/1413---13--10-
C--x--x--x----x---x--x--x----x---x-
G-11/1211---11--11/1211---11---8-
D----------0--------------0--------

Chorus (i have never seen anyone play this right but here is the right
        way)
Gtr 1

A-4-4-4--4--4-4-4-4-4-4------------
F-4-4-4--4--4-4-4-4-4-4--3-3-3-4-4-
C-4-4-4--4--4-4-4-4-4-4--4-4-4-5-3-
[ Tab from: http://www.guitartabs.cc/tabs/k/korn/freak_on_a_leash_tab_ver_2.html ]
Gtr 2
F-4-4-4--4--4-4-4-4-4-4------------
C-4-4-4--4--4-4-4-4-4-4--4-4-4-5-3-
G-2-2-2--2--2-2-2-2-2-2--4-4-4-5-3-
D------------------------2-2-2-3-1-

Interlude
D-----10-10------10-10-9-9-9------10-10------10-10-10-10-10-10-
A--------------------------------------------------------------
F--------------------------------------------------------------
C--------------------------------------------------------------
G--------------------------------------------------------------
D-9-9--------9-9--------------9-9--------9-9-------------------

Bridge

G-4---5--6--7-4---5--6--7-4---5--6--7-4---5--6--5-
D-4---5--6--7-4---5--6--7-4---5--6--7-4---5--6--5-
A-2---3--4--5-2---3--4--5-2---3--4--5-2---3--4--3-

Last Chorus
Gtr 1

F-------------------3-3-3-4-4-
C-------------------4-4-4-5-3-
G-2-2--2--2-2-2-2-2-----------
D-2-2--2--2-2-2-2-2-----------
A-0-0--0--0-0-0-0-0-----------

Gtr2
C-------------------4-4-4-5-3-
G-2-2--2--2-2-2-2-2-4-4-4-5-3-
D-2-2--2--2-2-2-2-2-2-2-2-3-1-
A-0-0--0--0-0-0-0-0-----------

After jon says "something takes a part of me..."
Gtr 1 plays Gtr 2's part and Gtr 2 plays this
High      *means whammy pedal is used to raise pitch 1 octave
A-7/-*--7--8--5-

Now this site finally has the right tabs of Korns most hyped & popular song


Comments