Korn - Freak On A Leash Chords & Tabs

 

Freak On A Leash Chords & Tabs

Korn Chords & Tabs

Version: 17 Type: Tab 0 ratings
1 star 2 stars 3 stars 4 stars 5 stars
comments

Freak On A Leash Tab

Korn - Freak on a Leash
Tabbed by: Xavieres
Tunning: Drop E



Riff 1: x12
Guitar 1:             Guitar 2:
|---------16---------|----------11---|
|--14-----------15---|------10-------|
|--------------------|---10----------|
|--------------------|---------------|
|--------------------|---------------|
|--------------------|---------------|

Riff 2: x4
|-----------------------------------|
|-----------------------------------|
|-----------------------------------|
|-4-5-4-----4-------4-5-4-----4---0-|
|-4-5-4-----4-------4-5-4-----4---0-|
|-2-3-2--0--2-------2-3-2--0--2---0-|

Chorus: x4
|----------------------------------|
|----------------------------------|
|--5-5---5---5-5-------------------|
|--5-5---5---5-5---5----6--4---3-2-|
|--3-3---3---3-3---5----6--4---3-2-|
|------------------3----4--2---1-0-|

Riff 1: x4
Guitar 1:             Guitar 2:
|---------16---------|----------11---|
|--14-----------15---|------10-------|
|--------------------|---10----------|
|--------------------|---------------|
|--------------------|---------------|
|--------------------|---------------|
[ Tab from: http://www.guitartabs.cc/tabs/k/korn/freak_on_a_leash_tab_ver_17.html ]
Riff 2: x4
|-----------------------------------|
|-----------------------------------|
|-----------------------------------|
|-4-5-4-----4-------4-5-4-----4---0-|
|-4-5-4-----4-------4-5-4-----4---0-|
|-2-3-2--0--2-------2-3-2--0--2---0-|

Chorus: x4
|----------------------------------|
|----------------------------------|
|--5-5---5---5-5-------------------|
|--5-5---5---5-5---5----6--4---3-2-|
|--3-3---3---3-3---5----6--4---3-2-|
|------------------3----4--2---1-0-|

Riff 3: x4
|-------7--7--------7--7--6-7-6---------7--7--------7--7---|
|----------------------------------------------------------|
|----------------------------------------------------------|
|----------------------------------------------------------|
|-0--0--------0--0----------------0--0--------0--0---------|
|----------------------------------------------------------|

Riff 4: x3
|---------------|--------------|
|---------------|--------------|
|---------------|--------------|
|-4---5---6---7-|--4---5--3--2-|
|-4---5---6---7-|--4---5--3--2-|
|-2---3---4---5-|--2---3--1--0-|
|_______________|
       x3

Chorus 2: x8
|----------------------------------|
|----------------------------------|
|------------------5----6--4---3-2-|
|-2-2-xxx-2-x-2-2--5----6--4---3-2-|
|-2-2-xxx-2-x-2-2--3----4--2---1-0-|
|-0-0-xxx-0-x-0-0------------------|
Comments