Korn - Freak On A Leash Chords & Tabs

 

Freak On A Leash Chords & Tabs

Korn Chords & Tabs

Version: 13 Type: Tab 0 ratings
1 star 2 stars 3 stars 4 stars 5 stars
comments

Freak On A Leash Tab

   
 
Tuning:Whole Step Down (DGCFAD) 
 
  
Fig1 (verse riff) 
Guitar 1                           Guitar 2 
|--12---19---13--------------|--------------------12------| 
|----------------------------|----------------------------| 
|----------------------------|-------------9--10----------| 
|----------------------------|----------------------------| 
|----------------------------|----------------------------| 
|----------------------------|----------------------------| 
 
 
Fig2 (Pre-Chorus riff) 
|-------------------------------------| 
|-------------------------------------| 
|-13s14s13---13---13s14s13---13--10---| 
|-------------------------------------| 
|-11s12s11---11---11s12s11---11--8----| 
|----------0---------------0----------| 
 
 
Fig3 (Interlude riff) 
|-----10-10------10-10-9s10s9----| 
|--------------------------------| 
|-7-7-------7-7------------------| 
|--------------------------------| 
|--------------------------------| 
|--------------------------------| 
 
  
Fig4 (Chorus riff) 
  A  A  E     F   D 
|-----------------------| 
|-----------------------| 
|-4--4------3-----------| 
|-4--4--4-4---5---2-----| 
|-2--2--4-----5---2-----| 
|-------2-----3---0-----| 
 
 
Fig5 (Interlude riff) 
  B    C   C#  D 
|-------------------| 
|-------------------| 
|-------------------| 
|-11--12--13--14----| 
|-11--12--13--14----| 
|-9---10--11--12----| 
 
 
Fig1 
Fig2 
Fig4 
Fig1 
Fig2 
Fig4 
Fig3 
Fig5 
Fig4 
Fig4 
-------------------------------------------------------------------------------------
[ Tab from: http://www.guitartabs.cc/tabs/k/korn/freak_on_a_leash_tab_ver_13.html ]
Comments