Korn - Freak On A Leash Chords & Tabs

 

Freak On A Leash Chords & Tabs

Korn Chords & Tabs

Version: 11 Type: Tab 0 ratings
1 star 2 stars 3 stars 4 stars 5 stars
comments

Freak On A Leash Tab

BAND  : KORN
ALBUM : FOLLOW THE LEADER
SONG  : FREAK ON A LEASH
TRACK : 14
TIME  : 4:18
TABBED: GABRIEL ROMERO 

DROPPED D TUNNING

TAB LEGEND:
~  VIBRATO
@  TREMOLO BAR
h  HAMMER ON
p  PULL OFF
/  GUITARS DON'T PLAY
:: TREMOLO PICKING

INTRO:
e------------------------------------------------------------22~~~~~-----
B----------------22~~~-------16~~~-------16~~~~----20~~~~~~--------------
G----19~~~~~-------------------------------------------------------------
D------------------------------------------------------------------------
A------------------------------------------------------------------------
E------------------------------------------------------------------------
|
e------------------------17@-@-@-@-@-@-@---------------------------------
B------------------------------------------------------------------------
G------------------------------------------------------------------------
D------------------------------------------------------------------------
A------------------------------------------------------------------------
E------------------------------------------------------------------------

e----------------------------------------------------22~~~~~~~-----------
B----22~~~~~~----16~~~~~~~----16~~~~~~~----20~~~~~~~~~~------------------
G------------------------------------------------------------------------
D------------------------------------------------------------------------
A------------------------------------------------------------------------
E------------------------------------------------------------------------
|
e---------------17-@-@-@-@-@-@-@-----------------------------------------
B------------------------------------------------------------------------
G------------------------------------------------------------------------
D------------------------------------------------------------------------
A------------------------------------------------------------------------
E------------------------------------------------------------------------
FIRST AND SECOND VERSE:
e-------------------------------------------------------22~~~~~~~--------
B----22~~~~~~----16~~~~~~~----16~~~~~~~----20~~~~~~~~~~------------------
G------------------------------------------------------------------------
D------------------------------------------------------------------------
A------------------------------------------------------------------------
E------------------------------------------------------------------------
|
e---------------17-@-@-@-@-@-@-@-----------------------------------------
B------------------------------------------------------------------------
G------------------------------------------------------------------------
D------------------------------------------------------------------------
A------------------------------------------------------------------------
E------------------------------------------------------------------------
FIRST AND SECOND VERSE                                                         
e----------------------------------------------------22~~~~~~~-----------
B----22~~~~~~----16~~~~~~~----16~~~~~~~----20~~~~~~~~~~------------------
G------------------------------------------------------------------------
D------------------------------------------------------------------------
A------------------------------------------------------------------------
E------------------------------------------------------------------------
|
e---------------17-@-@-@-@-@-@-@-----------------------------------------
B------------------------------------------------------------------------
G------------------------------------------------------------------------
D------------------------------------------------------------------------
A------------------------------------------------------------------------
E------------------------------------------------------------------------
                                                         1.Something takes apart
                                                    
e----------------------------------------------------22~~~~~~~-----------
B----22~~~~~~----16~~~~~~~----16~~~~~~~----20~~~~~~~~~~------------------
G------------------------------------------------------------------------
D------------------------------------------------------------------------
A------------------------------------------------------------------------
E------------------------------------------------------------------------
        of   me_______                                     Something last and ne-
    
e----------------------------------------------------22~~~~~~~-----------
B----22~~~~~~----16~~~~~~~----16~~~~~~~----20~~~~~~~~~~------------------
G------------------------------------------------------------------------
D------------------------------------------------------------------------
A------------------------------------------------------------------------
E------------------------------------------------------------------------
|
e------------------------------------------------------------------------
B--------------16@@@@@@@@@@@@@-------------------------------------------
G------------------------------------------------------------------------
D------------------------------------------------------------------------
A------------------------------------------------------------------------
E------------------------------------------------------------------------
    ver see______n                                         Every time I'm sad

e----------------------------------------------------22~~~~~~~-----------
B----22~~~~~~----16~~~~~~~----16~~~~~~~----20~~~~~~~~~~------------------
G------------------------------------------------------------------------
D------------------------------------------------------------------------
A------------------------------------------------------------------------
E------------------------------------------------------------------------
|
e------------------------------------------------------------------------
B--------------16@@@@@@@@@@@@@-------------------------------------------
G------------------------------------------------------------------------
D------------------------------------------------------------------------
A------------------------------------------------------------------------
E------------------------------------------------------------------------
     of belive______                                       Something is break and taken
                   
e----------------------------------------------------22~~~~~~~-----------
B----22~~~~~~----16~~~~~~~----16~~~~~~~----20~~~~~~~~~~------------------
G------------------------------------------------------------------------
D------------------------------------------------------------------------
A------------------------------------------------------------------------
E------------------------------------------------------------------------
|
e------------------------------------------------------------------------
B--------------16@@@@@@@@@@@@@-------------------------------------------
G------------------------------------------------------------------------
D------------------------------------------------------------------------
A------------------------------------------------------------------------
E------------------------------------------------------------------------
     from me, from me                                  Life got a house been 
                                                     2.Feeling like a freak 

e----------------------------------------------------22~~~~~~~-----------
B----22~~~~~~----16~~~~~~~----16~~~~~~~----20~~~~~~~~~~------------------
G------------------------------------------------------------------------
D------------------------------------------------------------------------
A------------------------------------------------------------------------
E------------------------------------------------------------------------
|
e------------------------------------------------------------------------
B--------------16@@@@@@@@@@@@@-------------------------------------------
G------------------------------------------------------------------------
D------------------------------------------------------------------------
A------------------------------------------------------------------------
E------------------------------------------------------------------------
      me send with me                                  Can't touch and they lent
      on a leash                                       Feeling like a have 

e----------------------------------------------------22~~~~~~~-----------
B----22~~~~~~----16~~~~~~~----16~~~~~~~----20~~~~~~~~~~------------------
G------------------------------------------------------------------------
D------------------------------------------------------------------------
A------------------------------------------------------------------------
E------------------------------------------------------------------------
|
e------------------------------------------------------------------------
B--------------16@@@@@@@@@@@@@-------------------------------------------
G------------------------------------------------------------------------
D------------------------------------------------------------------------
A------------------------------------------------------------------------
E------------------------------------------------------------------------
     be free_____                                       Can't thought take all away
     no a leash                                         How many times does I feel

e----------------------------------------------------22~~~~~~~-----------
B----22~~~~~~----16~~~~~~~----16~~~~~~~----20~~~~~~~~~~------------------
G------------------------------------------------------------------------
D------------------------------------------------------------------------
A------------------------------------------------------------------------
E------------------------------------------------------------------------
|
e------------------------------------------------------------------------
B--------------16@@@@@@@@@@@@@-------------------------------------------
G------------------------------------------------------------------------
D------------------------------------------------------------------------
A------------------------------------------------------------------------
E------------------------------------------------------------------------ 
     this pai____n                                       I try to every night 
     disea___s                                           Nothing in my life
[ Tab from: http://www.guitartabs.cc/tabs/k/korn/freak_on_a_leash_tab_ver_11.html ]
e----------------------------------------------------22~~~~~~~-----------
B----22~~~~~~----16~~~~~~~----16~~~~~~~----20~~~~~~~~~~------------------
G------------------------------------------------------------------------
D------------------------------------------------------------------------
A------------------------------------------------------------------------
E------------------------------------------------------------------------
|
e------------------------------------------------------------------------
B--------------16@@@@@@@@@@@@@-------------------------------------------
G------------------------------------------------------------------------
D------------------------------------------------------------------------
A------------------------------------------------------------------------
E------------------------------------------------------------------------
     all in vain, in vain
     is free is free

BRIDGE:
e------------------------------------------------------------------------
B------------------------------------------------------------------------
G------------------------------------------------------------------------
D---4h5p4--------4--------4h5p4--------4---------4h5p4---------4---------
A------------5-------5-------------5--------5-------------5---------5----
E------------------------------------------------------------------------
|            
e------------------------------------------------------------------------
B------------------------------------------------------------------------
G---------------------------------------------8@@@@@@@@@bg@@@@@@@@@@@@/9@
D------------------------------------------------------------------------
A------------------------------------------------------------------------
E------------------------------------------------------------------------
             Sometimes I cannot take this place,        sometimes it's

e------------------------------------------------------------------------
B------------------------------------------------------------------------
G------------------------------------------------------------------------
D---4h5p4---------4---------4h5p4---------4---------4h5p4---------4------
A------------5---------5-------------5---------5-------------5---------5-
E------------------------------------------------------------------------
|
e------------------------------------------------------------------------
B------------------------------------------------------------------------
G@@@@@@@@@/8@@@@@@@@@@@@@------------------------------------------------
D------------------------------------------------------------------------
A------------------------------------------------------------------------
E------------------------------------------------------------------------
    my life I can taste          Sometimes I cannot fill my face  
               
e------------------------------------------------------------------------
B------------------------------------------------------------------------
G------------------------------------------------------------------------
D---0--------------------------------------------------------------------
A---0--------------------------------------------------------------------
E------------------------------------------------------------------------
    you'll never see me fall from grace  

CHORUS: (SAME FOR TWO GUITARS)
e------------------------------------------------------------------------
B------------------------------------------------------------------------
G------------------------------------------------------------------------
D---7--7--7-X-X-X-X--7--7---2--2-X-X-X-X---5--5--7--7--7-X-X-X-X--7--7---
A---7--7--7-X-X-X-X--7--7---2--2-X-X-X-X---5--5--7--7--7-X-X-X-X--7--7---
E---7--7--7-X-X-X-X--7--7---2--2-X-X-X-X---5--5--7--7--7-X-X-X-X--7--7---
                          Something takes apa____rt of me_________. 

e------------------------------------------------------------------------
B------------------------------------------------------------------------
G------------------------------------------------------------------------
D---2--2-X-X-X-X---5--5--7--7--7-X-X-X-X--7--7---2--2-X-X-X-X---5--5-----
A---2--2-X-X-X-X---5--5--7--7--7-X-X-X-X--7--7---2--2-X-X-X-X---5--5-----
E---2--2-X-X-X-X---5--5--7--7--7-X-X-X-X--7--7---2--2-X-X-X-X---5--5-----
    You_ a_____nd  I__would meet at me________.   I___ shi__t fucks for

e------------------------------------------------------------------------
B------------------------------------------------------------------------
G------------------------------------------------------------------------
D---7--7--7-X-X-X-X--7--7---2--2-X-X-X-X---5--5-X-5-7--------------------
A---7--7--7-X-X-X-X--7--7---2--2-X-X-X-X---5--5-X-5-7--------------------
E---7--7--7-X-X-X-X--7--7---2--2-X-X-X-X---5--5-X-5-7--------------------
    me___ to__ lai______. Something takes apart of me____________.

BRIDGE 2:

GUITAR///////////////////////////////////////////////////////////////////

      Pu_mmmna__hatammmm  nanainma___ Ta Pu_mmmna__hatammmm  nanainma___ 

GUITAR///////////////////////////////////////////////////////////////////

      Ta Pu_mmmna__hatammmm  nanainma___ Ta Pu_mmmna__hatammmm  nanainma___

e----------8---8--------8-----8---------------8---8----8-----8::---------
B------------------------------------------------------------------------
G-----4----------4----4----4-----4-------4----------4----4---------------
D------------------------------------------------------------------------
A------------------------------------------------------------------------
E------------------------------------------------------------------------
      Ta Pu_mmmna__hatammmm  nanainma___ Ta Pu_mmmna__hatammmm  nanainma___

e----------8---8--------8-----8---------------8---8----8-----8::---------
B------------------------------------------------------------------------
G-----4----------4----4----4-----4-------4----------4----4---------------
D------------------------------------------------------------------------
A------------------------------------------------------------------------
E------------------------------------------------------------------------
      Ta Pu_mmmna__hatammmm  nanainma___ Ta Pu_mmmna__hatammmm  nanainma___

e----------8---8--------8-----8---------------8---8----8----8------------
B------------------------------------------------------------------------
G-----4----------4----4----4-----4-------4----------4--------------------
D------------------------------------------------------------------------
A------------------------------------------------------------------------
E------------------------------------------------------------------------
      Ta Pu_mmmna__hatammmm  nanainma___ Ta Pu_mmmna__hatammmm  nanai GO___

VERSE 3:
e------------------------------------------------------------------------
B------------------------------------------------------------------------
G------------------------------------------------------------------------
D--9---10---12--12---9---10---12--12---9---10---12--12---9---10---12--12-
A--9---10---12--12---9---10---12--12---9---10---12--12---9---10---12--12-
E--9---10---12--12---9---10---12--12---9---10---12--12---9---10---12--12-

e------------------------------------------------------------------------
B------------------------------------------------------------------------
G------------------------------------------------------------------------
D---9----10----12---12----9---10---12---12----9----10----12---12---------
A---9----10----12---12----9---10---12---12----9----10----12---12---------
E---9----10----12---12----9---10---12---12----9----10----12---12---------
   Tso foysomlimnanamina foy somesingdepoy   Tso foysomlinanamina

e------------------------------------------------------------------------
B------------------------------------------------------------------------
G------------------------------------------------------------------------
D---9----10---12---12----9---10---12---12----9----10----12---12----------
A---9----10---12---12----9---10---12---12----9----10----12---12----------
E---9----10---12---12----9---10---12---12----9----10----12---12----------
   foy somesingdepoy    foy__somlinanamina  Ahhhh somesingdepoy

e---------------------------------------------
B---------------------------------------------
G---------------------------------------------
D---9----10----12---12----9---10---12---12----
A---9----10----12---12----9---10---12---12----
E---9----10----12---12----9---10---12---12----
   foy   somlinanamina    foy somesingdepoy  

OUTRO:
e------------------------------------------------------------------------
B------------------------------------------------------------------------
G------------------------------------------------------------------------
D---7--7--7-X-X-X-X--7--7---2--2-X-X-X-X---5--5--7--7--7-X-X-X-X--7--7---
A---7--7--7-X-X-X-X--7--7---2--2-X-X-X-X---5--5--7--7--7-X-X-X-X--7--7---
E---7--7--7-X-X-X-X--7--7---2--2-X-X-X-X---5--5--7--7--7-X-X-X-X--7--7---
                          Something takes apa____rt of me_________. 

e------------------------------------------------------------------------
B------------------------------------------------------------------------
G------------------------------------------------------------------------
D---2--2-X-X-X-X---5--5--7--7--7-X-X-X-X--7--7---2--2-X-X-X-X---5--5-----
A---2--2-X-X-X-X---5--5--7--7--7-X-X-X-X--7--7---2--2-X-X-X-X---5--5-----
E---2--2-X-X-X-X---5--5--7--7--7-X-X-X-X--7--7---2--2-X-X-X-X---5--5-----
    You_ a_____nd  I__would meet at me________.   I___ shi__t fucks for

e------------------------------------------------------------------------
B------------------------------------------------------------------------
G------------------------------------------------------------------------
D---7--7--7-X-X-X-X--7--7---2--2-X-X-X-X---5--5--7--7--7-X-X-X-X--7--7---
A---7--7--7-X-X-X-X--7--7---2--2-X-X-X-X---5--5--7--7--7-X-X-X-X--7--7---
E---7--7--7-X-X-X-X--7--7---2--2-X-X-X-X---5--5--7--7--7-X-X-X-X--7--7---
    me___ to__ lai______. Something takes apart of me___________________

e------------------------------------------------------------------------
B------------------------------------------------------------------------
G------------------------------------------------------------------------
D---2--2-X-X-X-X---5--5--7--7--7-X-X-X-X--7--7---2--2-X-X-X-X---5--5-----
A---2--2-X-X-X-X---5--5--7--7--7-X-X-X-X--7--7---2--2-X-X-X-X---5--5-----
E---2--2-X-X-X-X---5--5--7--7--7-X-X-X-X--7--7---2--2-X-X-X-X---5--5-----
    ___________________  apart of me____________________________________

e------------------------------------------------------------------------
B------------------------------------------------------------------------
G------------------------------------------------------------------------
D---7--7--7-X-X-X-X--7--7---2--2-X-X-X-X---5--5--7--7--7-X-X-X-X--7--7---
A---7--7--7-X-X-X-X--7--7---2--2-X-X-X-X---5--5--7--7--7-X-X-X-X--7--7---
E---7--7--7-X-X-X-X--7--7---2--2-X-X-X-X---5--5--7--7--7-X-X-X-X--7--7---
    apart of me_________________________________ apart of me____________

e------------------------------------------------------------------------
B------------------------------------------------------------------------
G------------------------------------------------------------------------
D---2--2-X-X-X-X---5--5--7--7--7-X-X-X-X--7--7---------------------------
A---2--2-X-X-X-X---5--5--7--7--7-X-X-X-X--7--7---------------------------
E---2--2-X-X-X-X---5--5--7--7--7-X-X-X-X--7--7---------------------------
    _______________________________________________________________.

IN VERSE 3 YOU ALSO CAN PLAY THIS, BOTH RIFFS SOUND GOOD.

e------------------
B------------------
G------------------
D---7--10--12--12--
A---7--10--12--12--
E---7--10--12--12--
Comments