Korn - Freak On A Leash Chords & Tabs

 

Freak On A Leash Chords & Tabs

Korn Chords & Tabs

Version: 4 Type: Bass Tab 0 ratings
1 star 2 stars 3 stars 4 stars 5 stars
comments

Freak On A Leash Bass Tab

   
-------------------------------------------------------------------------------
			FREAK ON A LEASH - KoRn
-------------------------------------------------------------------------------

Tabbed By : KoRnKid89
e-mail: XblytheX89@aol.com

Tuning: ADGCF

  Intro:
F|-------------|-------------|-------------|-------------|
C|-------------|-------------|-------------|-------------|
G|-------------|-------------|-------------|-------------|
D|-------6-----|--6----7-----|--5----6-----|--6----7-----|
A|----5-----5--|----6-----6--|----5-----5--|----6-----6--|
  (x2)


  Verse 1:  
F|---------------|
C|---------------|
G|---------------|
D|----6----7-----|
A|------6-----6--| (enter at "Something lost and never seen.")

F|---------------|------------|-------------|-------------|
C|---------------|------------|-------------|-------------|
G|---------------|------------|-------------|-------------|
D|-------6----6--|------------|-------5-----|--6----7-----|
A|--5555---5-----|--6---4--6--|--5555---5---|----6-----6--|
  (x3)

F|---------------|------------|-------------|-------------|
C|---------------|------------|-------------|-------------|
G|---------------|------------|-------------|-------------|
D|-------6----6--|------------|-------5-----|-------7-----|
A|--5555---5-----|--6---4--6--|--5555---5---|----6-----6--|
  

  Pre-Chorus:
F|------------------------|------------------------|------------------------|
C|------------------------|------------------------|------------------------|
G|------------------------|-----77-----------------|--7---------------------|
D|---------------------1--|---------------------1--|---------------------1--|
A|--5----------3----1-----|--5-----5----3----1-----|----777-5----3----1-----|
   
                    P
F|------------------------|
C|------------------------|
G|------------------------|
D|------------------------|
A|--5-555-5---------5/12--|


  Chorus 1: 
    S  S  S  S S  S S  SSSS  S  S  S  S S  S S  S
F|-------------------------------------------------|
C|-------------------------------------------------|
G|-------------------------------------------------|
D|-------------------------------------------------|
A|--0--0--X--0-0--0-0--XXXX--0--0--X--0-0--0-0--2--|(x4)

F|----------------------|
C|----------------------|
G|----------------------|
D|----------------------|
A|--12-11-10-9-8-7-6-5--|

[ Tab from: http://www.guitartabs.cc/tabs/k/korn/freak_on_a_leash_btab_ver_4.html ]
  Verse 2:
F|-------------|-------------|-------------|-------------|
C|-------------|-------------|-------------|-------------|
G|-------------|-------------|-------------|-------------|
D|-------6-----|--6----7-----|-------6-----|--6----7-----|
A|----5-----5--|----6-----6--|----5-----5--|----6-----6--|
  (x2)  


  Chorus 2:
    S  S  S  S S  S S  SSSS  S  S  S  S S  S S  S
F|-------------------------------------------------|
C|-------------------------------------------------|
G|-------------------------------------------------|
D|-------------------------------------------------|
A|--0--0--X--0-0--0-0--XXXX--0--0--X--0-0--0-0--2--|(x4)


  Bridge pt. 1:
F|-------------------------------------|
C|-------------------------------------|
G|-------------------------------------|
D|-------------------------------------|
A|---------(right-hand-slide)--//\\//--|

  (slap all)
F|----------------------------|
C|----------------------------|
G|----------------------------|
D|-------X--------X-----------|
A|--X-X-----X-XXX----X-XX-2\--|(x4)

  (slap all)
F|----------------------|
C|----------------------|
G|----------------------|
D|----------------------|
A|--XXXXXX-XXXXXXXX-2\--|(x4)

F|----------------------|
C|----------------------|
G|----------------------|
D|----------------------|
A|--XXXXXX-XXXXXX-X-----|
 

 Bridge pt. 2:
      S    S   S  S
F|-------------------|
C|-------------------|
G|-------------------|     ____
D|-------------------|         \
A|----2----3---4--5--| (x3)     |
                                |
                                 }---- (x3)
F|-------------------|          |
C|-------------------|          |
G|-------------------|     ____/
D|-------------------|
A|----2----3---2--1--|


  Chorus 3:
    S  S  S  S S  S S  SSSS  S  S  S  S S  S S  S
F|-------------------------------------------------|
C|-------------------------------------------------|
G|-------------------------------------------------|
D|---------------------------2--2-----3-3--3-3-----|
A|--0--0--X--0-0--0-0--XXXX--------X------------0--|(x4)

    S  S  S  S S  S S  SSSS  S  S  S  S S SSSS  S
F|-------------------------------------------------|
C|-------------------------------------------------|
G|-------------------------------------------------|
D|---------------------------2--2-----3-3-3311-----|
A|--0--0--X--0-0--0-0--XXXX--------X------------0--|(x4)


| P  pop
| S  slap
| /  slide up
| \  slide down
| h  hammer-on
| p  pull-off
| ~  vibrato
| +  harmonic
| x  Mute note
===============================================================================
Comments