Korn - Falling Away From Me Chords & Tabs

 

Falling Away From Me Chords & Tabs

Korn Chords & Tabs

Version: 9 Type: Tab 0 ratings
1 star 2 stars 3 stars 4 stars 5 stars
comments

Falling Away From Me Tab

От: for www.ultimate-guitar.com 
Кому: 
Тема: New Tabs
Дата: 12 июня 2000 г. 6:12

KoRn, Falling Away From me.
 Tabbed by Mike, BizkitKornGazak@AOL.com.
  
Band:KoRn
Tuning: Standard
Song:Falling Away From me
Album: Issues

I learned this song on a six string so whoever doesn't have a seven string, this is for you!

Intro/Verse:
e--10--13--12------------12--------------------------
B--------------13---10-------------------------------
G----------------------------------------------------
D----------------------------------------------------
A----------------------------------------------------
E----------------------------------------------------
[ Tab from: http://www.guitartabs.cc/tabs/k/korn/falling_away_from_me_tab_ver_9.html ]
e----10--13--12----------12--------------------------
B----------------13--10------12----------------------
G----------------------------------------------------
D----------------------------------------------------
A----------------------------------------------------
E----------------------------------------------------



Hard part in some parts(Beginning/after verse 1):

e----------------------------------------------------
B----------------------------------------------------
G----------------------------------------------------
D----88888888888-----------Repeat--------------------
A----66006600000-----------Repeat--------------------
E----------------------------------------------------

Hard/Soft part (Beating me down...):

e----------------------------------------------------
B----------------------------------------------------
G----------------------------------------------------
D---22222222---4444444-----5555555----444------------
A----------------------------------------------------
E--------------2222222-----3333333----222------------

Thank You!
 
:: Ultimate Guitar Archive :: 
http://www.ultimate-guitar.com 

Comments