Korn - Falling Away From Me Chords & Tabs

 

Falling Away From Me Chords & Tabs

Korn Chords & Tabs

Version: 5 Type: Tab 0 ratings
1 star 2 stars 3 stars 4 stars 5 stars
comments

Falling Away From Me Tab

   
#----------------------------------PLEASE NOTE---------------------------------#
#This file is the author's own work and represents their interpretation of the #
#song. You may only use this file for private study, scholarship, or research. #
#------------------------------------------------------------------------------#

Falling AwAy fRom me
KoRN
issues
6string transcription
tuning:detuned 7 string (A D G C F A D)    (low to high)
   if you want to play the high part tune D G C F A d  
   if you want to play the low part tune A D G C F a  

^bend up 1/2 step 
*release 1/2 step bend
.held note or lyric
(#)a number in parenthases means dont pick that note just let it sound
x muted string or just not used

BEGIN
Intro:high geetar only  play 2times
d|---15--14--------|-14--------------|---15--14--------|-14--------------|
A|17---------15----|-----------------|17---------15----|------14---------|
F|---------------16|-----------------|---------------16|-----------------|
C|                 |                 |                 |                 |
G|                 |                 |                 |                 |
D|                 |                 |                 |                 |
                                        2nd time only A|low geetar------0|        
  
  play 2times
 |high geetar W/dist.   
d|----------------|----------------|----------------|----------------|
A|5-------5-------|5----5--5-------|5-------5-------|5-------5-------|
F|x-------x-------|x-------x-------|x-------x-------|x-------x-------|
C|3-------3-------|3-----3-3-------|3-------3-------|3-------3-------|
G|----------------|----------------|----------------|----------------|
D|----------------|----------------|----------------|----------------|
 |low geetar W/dist.   
a|----------------|----------------|----------------|----------------|
F|----------------|----------------|----------------|----------------|
C|3----3--3-------|3----3--3-------|3----3--3-------|3----3--3-------|
G|3----3--3-------|3----3--3-------|3----3--3-------|3----3--3-------|
D|1----1--1-------|1----1--1-------|1----1--1-------|1----1--1-------|
A|--0-0-0---0----0|--0-0-0---0----0|--0-0-0---0----0|--0-0-0---0----0|
[ Tab from: http://www.guitartabs.cc/tabs/k/korn/falling_away_from_me_tab_ver_5.html ]
Verse: play 4times (start lysics)
 |high              |1st & 3rd time        |2nd & 4th time
d|---15--14---------|-14-------------------||-14-------------------|
A|17---------15-----|----------------------||--------14------------|
F|---------------16-|----------------------||----------------------|
 |low                  ^* ^* ^* ^* ^* ^* ^*||  ^* ^* ^* ^* ^* ^* ^*
a|------------------|-11-11-11-11-11-11-11-||-11-11-11-11-11-11-11-|   
F|------------------|-only pick first note-||----------------------|     
C|------------------|----------------------||----------------------|    
 
 |1st ending  play 1time
 |high geetar W/dist.   
d|----------------|----------------|----------------|----------------|
A|5-------5-------|5----5--5-------|5-------5-------|5-------5-------|
F|x-------x-------|x-------x-------|x-------x-------|x-------x-------|
C|3-------3-------|3-----3-3-------|3-------3-------|3-------3-------|
G|----------------|----------------|----------------|----------------|
D|----------------|----------------|----------------|----------------|
 |low geetar W/dist.    
a|----------------|----------------|----------------|----------------|
F|----------------|----------------|----------------|----------------|
C|3----3--3-------|3----3--3-------|3----3--3-------|3----3--3-------|
G|3----3--3-------|3----3--3-------|3----3--3-------|3----3--3-------|
D|1----1--1-------|1----1--1-------|1----1--1-------|1----1--1-------|
A|--0-0-0---0----0|--0-0-0---0----0|--0-0-0---0----0|--0-0-0---0----0|

Verse2: play 4times         
 
 |high                                     |2nd & 4th time
d|---15--14---------|-14-------------------||-14-------------------|
A|17---------15-----|----------------------||--------14------------|
F|---------------16-|----------------------||----------------------|
 |low                  ^* ^* ^* ^* ^* ^* ^*||  ^* ^* ^* ^* ^* ^* ^*
a|------------------|-11-11-11-11-11-11-11-||-11-11-11-11-11-11-11-|   
F|------------------|-only pick first note-||-only pick first note-|     
C|------------------|----------------------||----------------------|    

  
d|------------|------------|------------|------------|
A|^.....*-----|^.........*-|^.....*-----|^.........*-|
F|3----(3)....|3--------(3)|3----(3)....|3--------(3)|
 |low   
a|------------|------------|------------|------------|
F|------------|------------|------------|------------|
C|------4-----|------------|------4-----|---------3--|
G|2-----4-----|5--------3--|2-----4-----|5--------3--|
D|2-----2-----|5--------3--|2-----2-----|5--------1--|
A|0-----x-----|3--------1--|0-----x-----|3--------x--|

Interlude1: play 6times
  ground.......................
 (no lyric second time)
       
 |high                                     |2nd, 4th & 6th time 
d|---15--14---------|-14-------------------||-14-------------------|
A|17---------15-----|----------------------||---------14-----------|
F|---------------16-|----------------------||----------------------|
 |low                  ^* ^* ^* ^* ^* ^* ^*|| ^* ^* ^* ^* ^* ^* ^*
a|------------------|-11(11-11-11-11-11-11)||-11(11-11-11-11-11-11)|   
F|------------------|-only pick first note-||----------------------|    
C|------------------|----------------------||-go out after 3rd time|    

Chorus: play 2times
  (beating me down beating beating me down)   
d|------------|------------|------------|------------|
A|^.....*-----|^.........*-|^.....*-----|^.........*-|
F|3----(3)....|3--------(3)|3----(3)....|3--------(3)|
 |low    
a|------------|------------|------------|------------|
F|------------|------------|------------|------------|
C|------4-----|------------|------4-----|---------3--|
G|2-----4-----|5--------3--|2-----4-----|5--------3--|
D|2-----2-----|5--------3--|2-----2-----|5--------1--|
A|0-----x-----|3--------1--|0-----x-----|3--------x--|

Coda: play 1time
 Ground..............................
 |high
d|------------|------------|------------|------------|
A|^.....*-----|^.........*-|^.....*-----|^.........*-|
F|3----(3)....|3--------(3)|3----(3)....|3--------(3)|
 |low
G|2-----------|(2)---------|(2)---------|(2)---------|
D|2-----------|(2)---------|(2)---------|(2)---------|
A|0-----------|(0)---------|(0)---------|(0)---------|

Bridge: play 1time
  Trust     in  me,        then,  walk a--way.
 |high
d|------------|------------|------------|------------|
A|^.....*-----|^.........*-|^.....*-----|^.........*-|
F|3----(3)....|3--------(3)|3----(3)....|3--------(3)|
 |low
 chords are harmonized with vocals
  Bm        F#  Bm7        Bm6           Gmaj7 
Comments