Korn - Falling Away From Me Chords & Tabs

 

Falling Away From Me Chords & Tabs

Korn Chords & Tabs

Version: 13 Type: Tab 0 ratings
1 star 2 stars 3 stars 4 stars 5 stars
comments

Falling Away From Me Tab

   
KoRn - Falling Away From Me
Issues

Riff A

------15--14----------14------15--14---------14-----
--17----------15----------17----------15---------14-
------------------16----------------------16--------
----------------------------------------------------
----------------------------------------------------
----------------------------------------------------
----------------------------------------------------

--14------------------------------------------------
------14-----5-----5-----5-----5------5-------------
----------------------------------------------------
-------------3-----3-----3---------3--3-------------
----------------------------------------------------
----------------------------------------------------
----------------------------------------------------

Riff 2

----------------------------------------------------------
----------------------------------------------------------
----------------------------------------------------------
------3--------3-----3----------3--------3-----3----------
------3--------3-----3----------3--------3-----3----------
------1--------1-----1----------1--------1-----1----------
--0------0--0-----0-----0----0-----0--0-----0-----0----0--

--5--------5-------5-------5------------------------
----------------------------------------------------
--3--------3-------3-------3------------------------
----------------------------------------------------
----------------------------------------------------
----------------------------------------------------
----------------------------------------------------

----------------------------------------------------------
----------------------------------------------------------
----------------------------------------------------------
------3--------3-----3----------3--------3-----3----------
------3--------3-----3----------3--------3-----3----------
------1--------1-----1----------1--------1-----1----------
--0------0--0-----0-----0----0-----0--0-----0-----0----0--

Verse

----------------------------------------------------
--11--(11)---(11)---(11)---(11)---(11)---(11)-------
----------------------------------------------------
----------------------------------------------------
----------------------------------------------------
----------------------------------------------------
--------------------------------------------------0-

Your flirting with suicide    Sometimes thats ok
I flirted with suicide        Sometimes kill the pain

Do what others say            Im here  standing hollow
I can't always say            Its gonna be better tomorrow

Falling away from me          Beating me down, beating me
[ Tab from: http://www.guitartabs.cc/tabs/k/korn/falling_away_from_me_tab_ver_13.html ]
----------------------------------------------------
----------------------------------------------------
--3--------(3)--------3--------(3)------------------
----------------------------------------------------
----------------------------------------------------
----------------------------------------------------
----------------------------------------------------
  b5  f#5 d5  f5  b5  f#5 
----------------------------------------------------
------1---------------1-----------------------------
------2---------------2-----------------------------
--4---2---3-------4---2-----------------------------
--4---3---3---3---4---3-----------------------------
--2---0---1---3---2---0-----------------------------
----------1---1-------------------------------------

Chorus

Beating me down   Into the ground   Screaming so sound
Beating me        Beating me down   Down, into the ground

   d5  c5  b5  f#5 d5  f5
----------------------------------------------------
-------1-------1------------------------------------
-------x-------2------------------------------------
---3---3---4---2---3--------------------------------
---3---3---4---3---3---3----------------------------
---1---1---2---0---1---3----------------------------
---1---x-----------1---1----------------------------

Riff C

   bm  f   bm7 bm6 gmaj7
----------------------------------------------------
-------1---2---4---3--------------------------------
---2---1---3---4---0--------------------------------
---3---2---4---4---0--------------------------------
---4---3---4---4---0--------------------------------
---2---3---0---x---2--------------------------------
---2---1---x---x---2--------------------------------

Trust in me           Then walk away

   bm   f    bm7  f5
----------------------------------------------------
--------1----2----------------------------------------
---2----1----3-----------------------------------------
---3----2----4-----------------------------------------
---4----3----4----3-------------------------------------
---2----3----0----3-------------------------------------
---2----1----x----1-------------------------------------

So I pray....    Go....    Away....

bm
Life's falling away from me     Its falling away from me
Lifes falling away
        f#5   d5   f5    b5
----------------------------------------------------
---------2------------------------------------------
----b5---2------------------------------------------
---------2----3-------------------------------------
----4----3----3----3-----4--------------------------
----4----0----1----3-----4--------------------------
----2---------1----1-----2--------------------------

Outro

Beating me down   Into the ground

----------------------------------------------------
----------------------------------------------------
--3--------(3)-------3--------(3)-------3------(3)--
----------------------------------------------------
----------------------------------------------------
----------------------------------------------------
----------------------------------------------------

The chords and the small solo parts are sometimes played at the same time - listen to the 
song to work it out. 
JINX
Comments