Korn - Falling Away From Me Chords & Tabs

 

Falling Away From Me Chords & Tabs

Korn Chords & Tabs

Version: 1 Type: Tab 0 ratings
1 star 2 stars 3 stars 4 stars 5 stars
comments

Falling Away From Me Tab

   
korn
falling away from me
7-string detuned 1 step (A D G C F A D)
[ Tab from: http://www.guitartabs.cc/tabs/k/korn/falling_away_from_me_tab.html ]
intro/verse
-----15-14-------14--||------||
--17-------15-------o||--14-o||
--------------16-----||------||
---------------------||------||
---------------------||------||
--------------------o||-----o||
---------------------||------||

intro cont.
-------------||
------------o||
--9----------||
-------------||
--8----------||
-----7-7--7-o||
--6--0-0--0--||

chorus
------------------------||
-----------------------o||
------------------------||
------------------------||
--2--9--5-3--2--9--5-8--||
--2--9--5-3--2--9--5-8-o||
--0--7--3-1--0--7--3-6--||
Comments