Korn - Falling Away From Me Chords & Tabs

 

Falling Away From Me Chords & Tabs

Korn Chords & Tabs

Version: 4 Type: Bass Tab 0 ratings
1 star 2 stars 3 stars 4 stars 5 stars
comments

Falling Away From Me Bass Tab

Artist: Korn
Song: Falling Away From Me
Album: Issues
Tabbed By: Mathias

intro (heavier part)
F[--------------------------------|
C[--------------------------------|
G[--------------------------------|
D[--------------------------------|
A[-6-00---6-00---6-00---6-00------|

verse (with distortion)
F[---------------------------|
C[---------------------------|
G[---------------------------|
D[---------------------------|
A[--1-0---1-0---1-0---1-0-22-|
[ Tab from: http://www.guitartabs.cc/tabs/k/korn/falling_away_from_me_btab_ver_4.html ]
chorus
F[--------------------------|
C[--------------------------|
G[--------------------------|
D[----2------------2-----3--|
A[-0-----3--1---0-----3-----|

bridge pt. 1 (play very slowly)
F[-------------------|
C[-------------------|
G[-------------------|
D[-9---7---6---7-----|
A[-------------------|
"Pressing me, they won't go away.."

bridge pt. 2 (play very softly)
F[--------------------------------------|
C[--------------------------------------|
G[--------------------------------------|
D[----2----------2-----3-----2----------|
A[-0-----3--1/0-----3-----0-----3--1/0~-|
"Life's falling away from me"

Here's how it goes
intro
verse
intro
verse
chorus
verse
chorus
bridge pt. 1
bridge pt. 2
intro
chorus

If any comments contact me at INUTERO9089@aol.com
Comments