Korn - Falling Away From Me Acoustic Chords & Tabs

 

Falling Away From Me Acoustic Chords & Tabs

Korn Chords & Tabs

Version: 1 Type: Tab

Falling Away From Me Acoustic Tab

Tunning Standard
This is a really accurte tab of one of the aol acoustic seesion korn did of falling away 
me
Intro:
E---------------------------------------------------------------------------|
A-----3---6---5-------------------------------------------------------------|
D---------------5---2--9----------------------------------------------------|
G---------------------------------------------------------------------------|
B---------------------------------------------------------------------------|
E---------------------------------------------------------------------------|

E---------------------------------------------------------------------------|
A-----3---6---5-------------------------------------------------------------|
D---------------5---2--9--4-------------------------------------------------|
G---------------------------------------------------------------------------|
B---------------------------------------------------------------------------|
E---------------------------------------------------------------------------|

Rate this song it's prett damn good
Shadows_deepest_fears@yahoo.com
[ Tab from: http://www.guitartabs.cc/tabs/k/korn/falling_away_from_me_acoustic_tab.html ]