Korn - Everything That I Could Find Chords & Tabs

 

Everything That I Could Find Chords & Tabs

Korn Chords & Tabs

Version: 1 Type: Tab 0 ratings
1 star 2 stars 3 stars 4 stars 5 stars
comments

Everything That I Could Find Tab

                                Artist- KoRn
				Song- Everything that i could find
				Album- Untouchables
			

This is another song i tabbed from the new "Untouchables" cd i got kinda confused on the chorus
One of those is right, you can take your pick. Well Hope u guys like it, im about 99% correct on
this tab. I took my time. It only took about 20 min though. Sorry i am not good with the effects
Munky and head use, so i didnt put them. Anyways enjoy KoRn Kids!




Intro
d ||------------------------------------------------------
A ||------------------------------------------------------
F ||------------------------------------------------------
C ||-----------------------------------6 6----------------  
G ||---------6 6------8 8--------------------9 9--8-8-8-8-
D ||---------------------------9 9 9----------------------
A ||------------------------------------------------------


Pre Chorus

d ||-----------------------------------------
A ||-----------------------------------------
F ||-----------------------------------------
C ||--8---9---6---------8----9---11----------
G ||--8---9---6---------8----9---11----------
D ||--6---7---4---------6----7---9-----------
A ||-----------------------------------------


Chorus

d ||-----------------------------------------
A ||-----------------------------------------
F ||-----------------------------------------
C ||--------4--------------------------------
G ||-6---2--4---4----------------------------
D ||-6---2--2---4----------------------------
A ||-4---0------2----------------------------

d ||-----------------------------------------
A ||-----------------------------------------
F ||-----------------------------------------
C ||----------4------------------------------
G ||-6----2---4---5--------------------------
D ||-6----2---2---5--------------------------
A ||-4----0-------3--------------------------
              oR

tAKE UR pICK, i GOT CONFUSED, iD PICK THE SECOND ONE, uP TO U


d ||-----------------------------------------
A ||-----------------------------------------
F ||-----------------------------------------
C ||--------4--------------------------------
G ||-6---2--4---4----------------------------
D ||-6---2--2---4----------------------------
A ||-4---0------2----------------------------

 ||------------------------------------------
A ||-----------------------------------------
F ||-----------------------------------------
C ||-----------------------------------------
G ||-6---2--4--5-----------------------------
D ||-6---2--4--5-----------------------------
A ||-4---0--2--3-----------------------------


That Thing Before the Bridge
[ Tab from: http://www.guitartabs.cc/tabs/k/korn/everything_that_i_could_find_tab.html ]
   " Find, Find, Find"
d ||-----------------------------------------
A ||-----------------------------------------
F ||-----------------------------------------
C ||-----------------------------------------
G ||-6-6-6-6-6-6-----6-6-6-7-----------------
D ||-6-6-6-6-6-6-----6-6-6-7-----------------
A ||-4-4-4-4-4-4-----4-4-4-5-----------------

Bridge ( Middle Or whatever You CAll it)


d ||-----------------------------------------
A ||-----------------------------------------
F ||-----------------------------------------
C ||-----------------------------------------
G ||--6-----7-----10------9---5--4-----------
D ||--6-----7-----10------9---5--4-----------
A ||--4-----5------8------7---3--2-----------
     ALL  Feeling  Have   Eating......

d ||-----------------------------------------
A ||-----------------------------------------
F ||-----------------------------------------
C ||-----------------------------------------
G ||--6-----7-----10------9---5--4-----------
D ||--6-----7-----10------9---5--4-----------
A ||--4-----5------8------7---3--2-----------
      ALL OF ME (Play While JOn says "all of me")

d ||-----------------------------------------
A ||-----------------------------------------
F ||-----------------------------------------
C ||-----------------------------------------
G ||--6-----7-----10------9---5--4-----------
D ||--6-----7-----10------9---5--4-----------
A ||--4-----5------8------7---3--2-----------
  Feeling  tired   is    some thing


d ||-----------------------------------------
A ||-----------------------------------------
F ||-----------------------------------------
C ||-----------------------------------------
G ||--6-----7-----10------9---5--4-----------
D ||--6-----7-----10------9---5--4-----------
A ||--4-----5------8------7---3--2-----------
      Wrong with me ( PLay this While JOn SAys "wrong with me")


Pre Chorus

d ||-----------------------------------------
A ||-----------------------------------------
F ||-----------------------------------------
C ||--8---9---6---------8----9---11----------
G ||--8---9---6---------8----9---11----------
D ||--6---7---4---------6----7---9-----------
A ||-----------------------------------------


Chorus

d ||-----------------------------------------
A ||-----------------------------------------
F ||-----------------------------------------
C ||--------4--------------------------------  
G ||-6---2--4---4----------------------------
D ||-6---2--2---4----------------------------
A ||-4---0------2----------------------------

d ||-----------------------------------------
A ||-----------------------------------------
F ||-----------------------------------------
C ||----------4------------------------------
G ||-6----2---4---5--------------------------
D ||-6----2---2---5--------------------------
A ||-4----0-------3--------------------------


Outro 

   " Find, Find, Find"
d ||-----------------------------------------
A ||-----------------------------------------
F ||-----------------------------------------
C ||-----------------------------------------
G ||-6-6-6-6-6-6-----6-6-6-7-----------------
D ||-6-6-6-6-6-6-----6-6-6-7-----------------
A ||-4-4-4-4-4-4-----4-4-4-5-----------------
Comments