Korn - Everything Ive Known Chords & Tabs

 

Everything Ive Known Chords & Tabs

Korn Chords & Tabs

Version: 1 Type: Tab 0 ratings
1 star 2 stars 3 stars 4 stars 5 stars
comments

Everything Ive Known Tab

Korn
Everything I've Known
Take A Look In The Mirror
Tabbed by: Robert Walden

Tuning: ADGCFad

Intro/Verse/Bridge-clean with reverb
------------------------------
------------------------------
--------------------------2---
---2--3---2--0---2--3--0-----0
------------------------------
------------------------------
-3------3------3--------------

Chorus
------------
------------
------------
------------
-5---5-5-6-3
-x---x-x-x-x
-3---3-3-4-1

Verse-guitar 2
--------------------------
-15~--15~--13~--11~--10~--
--------------------------
--------------------------
--------------------------
--------------------------
--------------------------

Prechorus-Guitar 1-hold chords
--------------------
--------------------
--------------------
-------3-----5-----7
-5-----3-----5-----5
-5-----1-----3-----3
-3------------------
[ Tab from: http://www.guitartabs.cc/tabs/k/korn/everything_ive_known_tab.html ]
Prechorus-Guitar 2
---------------------------------------------------
----15----------15----------15----------15----15---
-14----14-15-14----14-15-14----14-15-14----14----14
---------------------------------------------------
---------------------------------------------------
---------------------------------------------------
---------------------------------------------------

Bridge part 2-guitar 1
---------------------------
---------------------------
---------------------------
---------------------------
---------------------------
-5-6-5---5-6-5---5-6-3--6-5
-3-4-3---3-4-3---3-4-1--4-3

Bridge part 2-guitar 2-comes in during 3rd time
-----------------------------------
-----------------------------------
-11-12-11--11-12-11--11-12-9--12-11
--x--x--x---x--x--x---x--x-x---x--x
--9-10--9---9-10--9---9-10-7--10--9
-----------------------------------
-----------------------------------

Thats it, just piece it together and listen to song for timing and repititions.
More songs from the new album to come. IM me at kornfellow91 with comments or
leave one in correction box above. Enjoy!
Comments