Korn - Did My Time Chords & Tabs

 

Did My Time Chords & Tabs

Korn Chords & Tabs

Version: 3 Type: Tab 0 ratings
1 star 2 stars 3 stars 4 stars 5 stars
comments

Did My Time Tab

Whats up there dudes??
here is christian again with did my time

you can play it with a 6 string guitar but i play it with a 7 string
(you can also tune it down !!!!)

Inro:
guitar 1
[ Tab from: http://www.guitartabs.cc/tabs/k/korn/did_my_time_tab_ver_3.html ]
e-----------------------------------------------------------
h----------------------------------------------------------
g----------------------------------------------------------
d-----------------------------------------------------------
a-3-5-5-5---3-5-5-5---3-5-5-5---3-5-5-5-------------------------------------
e--------------------------------------------3--5--3--5--3--5--3--5-
h--------------------------------------------1--3--1--3--1--3--1--3-
                                             ( this part play both guitars)
interlude and chorus:
e----------------------------------------------
h----------------------------------------------
g----------------------------------------------
d----------------------------------------------
a--555-000-------------------------------------------
e----------1-11-3-1---------------------------------
h-------------------1---------------------------

verse:i know it looks wrong but it's right
d----------------------------------------------
a--3-5-3-5-3-5-3-5-3-5-3-5-3-5-3-5-3-5---------
e--3-5-3-5-3-5-3-5-3-5-3-5-3-5-3-5-3-5---------
h----------------------------------------------

  
i couldn't figure out the soft part put it is something in C
have you any questions ??
send a mail to christian@moonychat.org


Comments