Korn - Did My Time Chords & Tabs

 

Did My Time Chords & Tabs

Korn Chords & Tabs

Version: 17 Type: Tab 0 ratings
1 star 2 stars 3 stars 4 stars 5 stars
comments

Did My Time Tab

Guitar Should Be Tuned At (low to high) a d g C F A


                (play 4x)
|------------------------|------------------------|-----------------------|
|------------------------|------------------------|-----------------------|
|------------------------|------------------------|-----------------------|
|0-2-2-0-2-2-0-2-2-0-2-2-|------------------------|0-2-2-0-2-2-0-2-2-0-2-2|
|------------------------|------------------------|-----------------------|
|------------------------|3-6-6-3-6-6-3-6-6-3-6-6-|-----------------------|


|------------------------|-----------------------|------------------------|
|------------------------|-----------------------|------------------------|
|------------------------|-----------------------|------------------------|
|------------------------|0-2-2-0-2-2-0-2-2-0-2-2|------------------------|
|------------------------|-----------------------|------------------------|
|3-6-6-3-6-6-3-6-6-3-6-6-|-----------------------|3-6-6-3-6-6-3-6-6-3-6-6-|


|------------------------------|--------------------------------|
|------------------------------|--------------------------------|
|-2-2-2------------------------|-2-2-2--------------------------|
|-------2-2-2------------------|-------2-2-2--------------------|
|-------------3-3-3-------2-2-2|-------------3-3-3-------2-2-2--|
|-------------------3-3-3------|-------------------3-3-3--------|

|------------------------------|------------------------------------|
|------------------------------|------------------------------------|
|-2-2-2------------------------|------------------------------------|
|-------2-2-2-------------4-4-4|------------------------------------|
|-------------3-3-3-------2-2-2|------------------------------------|
|-------------------3-3-3------|-3--5--5--3--5--5--3--5--5--3--5--5-|
[ Tab from: http://www.guitartabs.cc/tabs/k/korn/did_my_time_tab_ver_17.html ]
|------------------------------------|-------------------------------------|
|------------------------------------|-------------------------------------|
|------------------------------------|-------------------------------------|
|------------------------------------|-------------------------------------|
|------------------------------------|-------------------------------------|
|-3--6--6--3--6--6--3--6--6--3--6--6-|-3--5--5--3--5--5--3--5--5--3--5--5--|

|------------------------------------|------------------------------|
|------------------------------------|------------------------------|
|------------------------------------|-2-2-2------------------------|
|------------------------------------|-------2-2-2------------------|
|------------------------------------|-------------3-3-3-------2-2-2|
|-3--6--6--3--6--6--3--6--6--3--6--6-|-------------------3-3-3------|

|-------------|----------------|----------------|
|-------------|----------------|--------------5-|
|-----3--2--2-|-----3--2--2----|-----3--2--2----|
|-------------|--------------3-|----------------|
|-------------|----------------|----------------|
|-3-----------|-3--------------|-3--------------|

|-----------------------------------------|
|-----------------------------------------|
|-----------------------------------------|
|-----------------------------------------|
|-----------------------------------------|
|-3----3--4---3----3--3----3--4-----3----1|

|------------------------|-------------------------|
|------------------------|-------------------------|
|------------------------|-------------------------|
|------------------------|-------------------------|
|------------------------|-------------------------|
|-1-3-3-1-3-3-1-3-3-1-3-3|-1-4-4-1-4-4-1-4-4-1-4-4-|

|-------------------------|-------------------------|
|-------------------------|-------------------------|
|-------------------------|-------------------------|
|-------------------------|-------------------------|
|-------------------------|-------------------------|
|-3-5-5-3-5-5-3-5-5-3-5-5-|-3-6-6-3-6-6-3-6-6-3-6-6-|
Comments