Korn - Did My Time Chords & Tabs

 

Did My Time Chords & Tabs

Korn Chords & Tabs

Version: 1 Type: Tab 0 ratings
1 star 2 stars 3 stars 4 stars 5 stars
comments

Did My Time Tab

song:did my time
artist:korn
tabbed by:dustin and fat man                H=HAMMER
tunning:drop C



                            intro
D----------------------------------------------------------------
A----------------------------------------------------------------
F----------------------------------------------------------------
C---0H 2 2 2-- --LISTEN TO THE------------------------------
G-------------SONG TO SEE-------------------------------
C--------------- HOW MUCH IT DOES THAT------------------



D------------------------------------------------------------------
A------------------------------------------------------------------
F------------------------------------------------------------------
C---2-3-3-3----------REPEAT HOWEVER MUCH U NEED TOO----------------
G---2-3-3-3--------------------------------------------------------
C---2-3-3-3--------------------------------------------------------

                           
D-----------------------------------------------------------------
A--------------------------------------------REPEAT---------------
F-------------------------------------------------HOWEVER---------
C--2-2-2---------------------------------------------MANY---------
G--------2-2-2---------------------------------------TIMES--------
C------------------5 HOLD---0-----4-4-4---------------------------

                              VERSE
D-----------------------------------------------------------------
A-----------------------------------------------------------------
F-----------------------------------------------------------------
C---2-2-2--2-2-2--2-2-2--2-2-2----3-3-3--3-3-3--3-3-3--3-3-3------
G---2-2-2--2-2-2--2-2-2--2-2-2----3-3-3--3-3-3--3-3-3--3-3-3------
C---2-2-2--2-2-2--2-2-2--2-2-2----3-3-3--3-3-3--3-3-3--3-3-3------
[ Tab from: http://www.guitartabs.cc/tabs/k/korn/did_my_time_tab.html ]
                            CHORUS
D-------------------------------------------------------------------
A------------------------------------------------------------------
F------------------------------------------------------------------
C--2-2-2------------5---------0----4--------------------------------
G--------2--2--2----5---------0----4--------------------------------
C-------------------5 HOLD----0----4--HOLD---------------------------

           
                          INTERLUDE(SLOW PART)
D-------------------------------------------------------------
A----------------------------------REPEAT AS -----------------
F------2-----------2----------------MANY TIMES----------------
C---------2----------2----------------U NEED------------------
G----------------------3--------------------------------------
C--0-------------0--------------------------------------------


                          HEAVY PART
D-----------------------------------------------------------------
A-----------------------------------------------------------------
F-------------------------------------------           REPEAT AS--
C---0---1- 1--- 0----0-0-0-0---2--1--0--------------------MUCH ---
G---0---1--1----0----0-0-0-0---2--1--0----------------------AS--U-
C---0---1--1----0----0 0 0 0---2--1--0------------            NEED


D---------------------------------------------------------------
A---------------------------------------------------------------
F---------------------------------------------------------------
C-0-0-0---0-0-0---0-0-0--0-0-0---1-1-1---1-1-1--1-1-1--1-1-1----
G-0-0-0---0-0-0---0-0-0--0-0-0---1-1-1---1-1-1--1-1-1--1-1-1----
C-O-0-0---0-0-0---0-0-0--0-0-0---1-1-1---1-1-1--1-1-1--1-1-1----

I AM ALMOST POSITIVE THAT IS RIGHT BECAUSE OUR BAND PLAYS IT EVERY 
TIME WE PRACTICE.  ITS REALLY ON A 7 STRING BUT ME AND FATTY MADE 
SOUND RIGHT ON A 6 STRING.              
                                     THANKS,
                                       DUSTIN AND FAT MAN

Comments