Korn - Did My Time Chords & Tabs

 

Did My Time Chords & Tabs

Korn Chords & Tabs

Version: 6 Type: Bass Tab 0 ratings
1 star 2 stars 3 stars 4 stars 5 stars
comments

Did My Time Bass Tab

Artist: Korn
Song: Did My Time
Album: Take A Look In The Mirror
Tabbed By: Mathias

intro (wait until the drums start to play)
[-----------------------------------------
[-----------------------------------------
[-----------------------2---------2-------
[-22-3-22-3-22-3----------3-2--0----3-2--0
               (the pause is the 2nd part of guitar intro)
[ Tab from: http://www.guitartabs.cc/tabs/k/korn/did_my_time_btab_ver_6.html ]
verse
[--------------------------------
[--------------------------------
[--------------------------------
[-222-222-222-222-333-333-333-333

chorus
[-----------------
[-----------------
[-2--------2------
[---3-2-0----3-2-0

bridge pt. 1
[-----------
[-----------
[-----------
[-9-9--9-8-7
"Betrayed.."

bridge pt. 2
[-------------
[-------------
[-------------
[-3-3-3-33-555
"I did my time!"

This whole is song is slap playing except for the bridge pt. 1 which is fingered.
If any comments contact me at INUTERO9089@aol.com,
Comments