Korn - Did My Time 6 String Chords & Tabs

 

Did My Time 6 String Chords & Tabs

Korn Chords & Tabs

Version: 1 Type: Tab 2 ratings
1 star 2 stars 3 stars 4 stars 5 stars
comments

Did My Time 6 String Tab

Korn - Did My Time (for 6 string)
Tab by - Dustin
Tuning DADGBE






intro

E|----------------|------------------------------------------------------------------------
B|----------------|------------------------------------------------------------------------
G|----------------|------------------------------------------------------------------------
D|----------------|--3-6-6-6---------------------------------------------------------------
A|--3-5-5-5--x17--|--3-6-6-6--x4--3-5-5-5-x4--(listen to song to figure out how manytimes)-
D|----------------|--3-6-6-6---------------------------------------------------------------


interlude and chorus
[ Tab from: http://www.guitartabs.cc/tabs/k/korn/did_my_time_6_string_tab.html ]
E|-----------------------------------------------------------------------------------------
B|-----------------------------------------------------------------------------------------
G|-----------------------------------------------------------------------------------------
D|-----------------------------------------------------------------------------------------
A|---555-000-------------------------------------------------------------------------------
D|-----------333-00-222--------------------------------------------------------------------


verse

E|-----------------------------------------------------------------------------------------
B|-----------------------------------------------------------------------------------------
G|-----------------------------------------------------------------------------------------
D|--3-5-5------3-6-6-----------------------------------------------------------------------
A|--3-5-5--x4--3-6-6--x4--(again listen to the song)---------------------------------------
D|--3-5-5------3-6-6-----------------------------------------------------------------------


 
slow interlude (im unsure about this part)

E|-----------------------------------------------------------------------------------------
B|-----------------------------------------------------------------------------------------
G|-----------------------------------------------------------------------------------------
D|-----------------------------------------------------------------------------------------
A|-----5-3---------5-3---------------------------------------------------------------------
D|--0-----------0------5-------------------------------------------------------------------



That is all i know
Comments