Korn - Deep Inside Chords & Tabs

 

Deep Inside Chords & Tabs

Korn Chords & Tabs

Version: 5 Type: Tab 0 ratings
1 star 2 stars 3 stars 4 stars 5 stars
comments

Deep Inside Tab

   
----------------------------------------------------------------------------
                         KoRn - Deep Inside
----------------------------------------------------------------------------

band: korn
song: deep inside
album: take a look in the mirror

tuning: standard (E B G D A E) KoRn RULES!!! i play this in 6 string not
a 7 string because i dont wanna buy one

intro, play all this 2x
E|-------------------------|-------------------------|
B|-------------------------|-------------------------|
G|-------------------------|-------------------------|
D|---222---333---222-------|---222---333---222-------|
A|-------------------4-3-2-|-------------------2-1-0-|
E|-2-----2-----2-----------|-2-----2-----2-----------|
[ Tab from: http://www.guitartabs.cc/tabs/k/korn/deep_inside_tab_ver_5.html ]
verse, play 4x  
E|-------------------|                                               
B|-------------------|   
G|-------------------|
D|-2-xxx-2-xxx-2-3-3-|
A|-0-xxx-0-xxx-0-1-2-|  
E|-------------------|    

pre chorus
E|-------|
B|-------|
G|-------|
D|-4-3-2-|
A|-2-1-0-|
E|-------|

chorus
E|-------------------------|-------------------------|
B|-------------------------|-------------------------|
G|-------------------------|-------------------------|
D|---222---333---222-------|---222---333---222-------|
A|-------------------4-3-2-|-------------------2-1-0-|
E|-2-----2-----2-----------|-2-----2-----2-----------|

bridge
E|-------------------|---------------------------|
B|----10-------------|---------------------------|
G|-11-11-11---11-11--|-2---2---5-4-3-2---2-5-4-2-|
D|-^-----12---12-11--|-2---2---5-4-3-2---2-5-4-2-|
A|-^-----------------|-0---0---3-2-1-0---0-3-2-0-|
E|-^-----------------|---------------------------|
  PLAY THIS 11 ONLY 1x THE REST 4x  

outro
E|-------------|
B|-------------|
G|-4-5-4-------|
D|-2-3-2-5-4-2-|
A|-------3-2-0-|
E|-------------|

ENJOY
Comments