Korn - Deep Inside Chords & Tabs

 

Deep Inside Chords & Tabs

Korn Chords & Tabs

Version: 3 Type: Tab 0 ratings
1 star 2 stars 3 stars 4 stars 5 stars
comments

Deep Inside Tab

11/25/03 10:36pm 
Tabbed by: Rode Dawg <======(Alias)
Artist- KoRn
Song Title- Deep Inside
Album Title- Take a Look in the Mirror
Tab Type- Guitar
Tuning- Basic

I wrote this tab for all the 6 string guitar players out there even though
everyone knows KoRn plays 7 string. SO SCREW YOU 7 STRING PLAYERS!!!

Intro:
  Fieldy comes in with a booming bass pick up in the beginning, and afterwards
guitar plays this-

e|------------------------------------------|
B|------------------------------------------|
G|*-----4-4-4-----5-5-5-----4-4-4----------*|(Repeat
D|*-----2-2-2-----3-3-3-----2-2-2--6-------*|   4x)
A|---------------------------------4--5-5---|
E|---0---------0---------0------------3-3---|

Verses:
      Then it breaks off into this-
                                           break into chorus
e|-------------------------------|----------|-----------|
B|-------------------------------|----------|-----------|
G|*-----------------------------*|-(Repeat)-|-----------|
D|*--2--2-2-2--2-2-2--2-2-3--5--*|----4x----|--5--3--2--|
A|---0--0-0-0--0-0-0--0-0-1--3---|----------|--3--1--0--|
E|-------------------------------|----------|-----------|
[ Tab from: http://www.guitartabs.cc/tabs/k/korn/deep_inside_tab_ver_3.html ]
Chorus:
     This is the same as the intro-

e|------------------------------------------|
B|------------------------------------------|
G|*-----4-4-4-----5-5-5-----4-4-4----------*|(Repeat
D|*-----2-2-2-----3-3-3-----2-2-2--6-------*|   4x)
A|---------------------------------4--5-5---|
E|---0---------0---------0------------3-3---|

     ***You also play this at the end of the bridge 
                before the last chorus***

Bridge:
  This is high and very simple (I'm hoping this is right...punch me if it's wrong)

e|------------------|
B|---9--------------|
G|*----10---10-10--*|(Repeat
D|*----------------*|   4x)
A|------------------|
E|------------------|

Outro:
  Make sure to space these power chords out since their are rests between them-

e|--------------------|
B|--------------------|
G|*--4--5--4---------*|(Repeat
D|*--2--3--2--5-4-2--*|   4x)
A|------------3-2-0---|
E|--------------------|

  And that's it.  Rock on with this tab considering I worked my butt off to get this on here.

     I dedicate this tab to the creation of our new band consisting of as of now:

Chris Rodey (Me)- Lead Guitar
Nick Wier- Rythym Guitar
Kevin Korte- Bass
Austin "Spaghettios" Eichorstt- Drums

P.S. METALLICA ROCKS!!!
Comments