Korn - Deep Inside Chords & Tabs

 

Deep Inside Chords & Tabs

Korn Chords & Tabs

Version: 2 Type: Tab 0 ratings
1 star 2 stars 3 stars 4 stars 5 stars
comments

Deep Inside Tab

Korn
Deep Inside
Take A Look In The Mirror
Tabbed by: Robert Walden

Tuning: ADGCFad

Intro/Chorus
-------------------------------------------------
-------------------------------------------------
---------------------2-2-------------------------
---444---555---444-1-2-2----444---555---444------
---------------------0-0-------------------------
-------------------------------------------------
-0-----0-----0------------0-----0-----0-----3-2-1

Verse
----------------------
----------------------
----------------------
----------------------
----------------------
-2-----2-----2-----3-4
-0-xxx-0-xxx-0-----1-2

Prechorus-("IT CAN HIDE")
------
------
------
------
------
-5-4-3
-3-2-1

Bridge-gtr.1-clean w/ wah-wah
---
-12
--x
--9
---
---
---play this chord all the way thru bridge, opening and closing wah
[ Tab from: http://www.guitartabs.cc/tabs/k/korn/deep_inside_tab_ver_2.html ]
Gtr.2-clean
-----------------------
----12------------12---
-13----13---13-13----13
-----------------------
-----------------------
-----------------------
-----------------------

Bridge part 2
-basically same as intro and chorus except for clean with chorus and reverb I
think, and guitar 2 does a variation of the prechorus throughout.

Outro
------------------
------------------
------------------
------------------
-4---5---4--------
-2---3---2---5-4-3
---0---0---0-3-2-1

Thats about it for "Deep Inside", just listen to song to get timing and
repititions and so forth. More tabs from the new album are sure to come. Im about
to put up "Play Me". If Nas wasn't in it, i think it would be the best song on
the album but either way its still a good song and is the next on my tab list. IM
me at kornfellow91 or post comment in correction box. Enjoy!
Comments