Korn - Dead Bodies Everywhere Chords & Tabs

 

Dead Bodies Everywhere Chords & Tabs

Korn Chords & Tabs

Version: 4 Type: Tab 0 ratings
1 star 2 stars 3 stars 4 stars 5 stars
comments

Dead Bodies Everywhere Tab

   
Dead Bodies Everywhere-Korn
Follow The Leader

Transcribed By: Jephthah Rae
Email: jeffrae@knet.ca

7 String
A D G C F A D

Intro: Drums, then

gtr. 2

d-----------------------------------------
a-----------------------------------------
f-----------------------------------------
c-----------------------------------------  x6
g-2---------------------------------------
d-2---------------------------------------
a-0---------------------------------------

Riff A: gtr. 1

d---------21---------------------19-------
a-----19------19------19------19----19----
f-20--------------20-------20-------------
c-----------------------------------------  x6
g-----------------------------------------
d-----------------------------------------
a-----------------------------------------

Fig. 1

d-----------------------------------------------------------------
a-----------------------------------------------------------------
f-----------------------------------------------------------------
c-----------------------------------------------------------------
g-----------------------------------------------------------------
d-5\4-2-2---x-5-4-----2--2-4------5\4-2-2---x-5-4-----2--2-4------
a-3\2-0-0---x-3-2-----0--0-2---0--3\2-0-0---x-3-2-----0--0-2---0--

d-----------------------------------------------------------------
a-----------------------------------------------------------------
f-----------------------------------------------------------------
c-----------------------------------------------------------------
g-----------------------------------------------------------------
d-5\4-2-2---x-5-4-----2--2-4------5\4-2-2---x-5-4-----2--2-4------
a-3\2-0-0---x-3-2-----0--0-2---0--3\2-0-0---x-3-2-----0--0-2------

Verses:

x2
d-----------------------------------------------------------------
a-12--------------/19--------20----------\11---------/19-----17---
f-----------------------------------------------------------------
c-----------------------------------------------------------------
g-----------------------------------------------------------------
d-----------------------------------------------------------------
a-----------------------------------------------------------------

Chorus: Fig. 1

Interlude: x4

gtr. 6 w/ whammy up 1 octave
[ Tab from: http://www.guitartabs.cc/tabs/k/korn/dead_bodies_everywhere_tab_ver_4.html ]
d-19--20-19-19-----------------------18--19--20-19-19-------------
a--------------19--20-19--19--------------------------19--20-18-19
f----------------------------17---17------------------------------
c-----------------------------------------------------------------
g-----------------------------------------------------------------
d-----------------------------------------------------------------
a-----------------------------------------------------------------

gtr. 7

d-----------------------------------------------------------------
a-----------------------------------------------------------------
f----------------------------------8~~~~~~---------------------8~-
c-----------------------------------------------------------------
g-----------------------------------------------------------------
d-----------------------------------------------------------------
a-----------------------------------------------------------------

then

gtr. 6

d---19------20------17--------------------------------------------
a-----------------------------------------------------------------
f-----------------------------------------------------------------
c-----------------------------------------------------------------
g-----------------------------------------------------------------
d-----------------------------------------------------------------
a-----------------------------------------------------------------

Bridge: x10

d----0-----0--------0-----0-------0-----0--------0-----0----------
a----0-----0--------0-----0-------0-----0--------0-----0----------
f-4--4---5-5-----4--4---6-6----4--4---5-5-----4--4---6-6----------
c-x------x-------x------x------x------x-------x------x------------
g-2------3-------2------4------2------3-------2------4------------
d-----------------------------------------------------------------
a-----------------------------------------------------------------

...Dead Bodies Ev-íry-where !...

d-----------------------------------------------------------------
a-----------------------------------------------------------------
f-----------------------------------------------------------------
c-----------------------------------------------------------------
g-3---3------------4---4----------3---3------------4---4----------
d-3---3------------4---4----------3---3------------4---4----------
a-1---1-----0------2---2-----0----1---1-----0------2---2-----0----

Outro: w/ Riff A

d-----------------------------------------------------------------
a-0-------------------------------------------------------------19
f-0----------------------------------------------------------20---
c-x---------------------------------------------------------------
g-3---------------------------------------------------------------
d-3---------------------------------------------------------------
a-----------------------------------------------------------------
Comments