Korn - Dead Bodies Everywhere Chords & Tabs

 

Dead Bodies Everywhere Chords & Tabs

Korn Chords & Tabs

Version: 1 Type: Tab 0 ratings
1 star 2 stars 3 stars 4 stars 5 stars
comments

Dead Bodies Everywhere Tab

   
its easy as 1 2 3 you can play it in about 3 minutes enjoy



d||--------9---------------7----||
A||--4--7-----7--4--7--4-7---7--||
F||-----------------------------||
C||-----------------------------||
G||-----------------------------||
D||-----------------------------||


Fig 2 (Chorus riff)
d||---------------------------------||
A||---------------------------------||
F||---------------------------------||
C||--11s12s11--9---11s12s11-9-9s11--||
G||--10s11s10--8---10s11s10-8-8s10--||
D||---9s10s-9--7----9s10s-9-7-7s-9--||


Fig 3 (Verse riff)
d||-----14--15-----14--12--||
A||--12--------11----------||
F||------------------------||
C||------------------------||
G||------------------------||
D||------------------------||


Fig 4 (Bridge riff)
d||--19-20-19--------------||
A||-----------20-19-20-19--||
F||------------------------||
C||------------------------||
G||------------------------||
D||------------------------||


Fig 5 (Interlude riff)
d||--------------||
A||--------------||
F||--4--5--4--7--||
C||--3--4--3--6--||
G||--2--3--2--5--||
D||--------------||


Fig 6 (Interlude riff)
d||--------------||
A||--------------||
F||--5--4--7--4--||
C||--4--3--6--3--||
G||--3--2--5--2--||
D||--------------||


ONE MORE VERSION


Chorus:
F# \\\\ E    F# \\\\ E EE
[ Tab from: http://www.guitartabs.cc/tabs/k/korn/dead_bodies_everywhere_tab.html ]
Verse:
a||-------------------------------------||
F||-------------------------------------||
C||--7--------12-13----6---------15-14--||
G||-------------------------------------||
D||-------------------------------------||
A||-------------------------------------||

End:
a||-------------------------||
F||-------------------------||
C||-------5-------------6---||
G||-------4-------------5---||  (repeat)
D||--2------22----2------2--||
A||--0------00----0------0--||

Then switch and play the weird chord and then the
E chord for the chorus.


ONE MORE VERSION

`=Hammer/slam off
(0)=open string mute

Fig1 (Intro/Bridge)
e||--------9---------------7-------------14--15-----14--12--||
B||--4--7-----7--4--7--4---7---7---12--------11-------------||
G||---------------------------------------------------------||
D||---------------------------------------------------------||
A||---------------------------------------------------------||
E||---------------------------------------------------------||


Fig3 (Chorus)
e||-------------------------------||
B||-------------------------------||
G||-------------------------------||
D||-------------------------------||
A||--5`4`3-(0)-----5`4`3-(0)---2--||
E||--3`2`1-(0)-----3`2`1-(0)---0--||


Fig4 (Interlude1)
e||--------------||
B||--------------||
G||--4--5--4--7--||
D||--3--4--3--6--||
A||--2--3--2--5--||
E||--------------||


Fig5 (Interlude2)
e||--------------||
B||--------------||
G||--5--4--7--4--||
D||--4--3--6--3--||
A||--3--2--5--2--||
E||--------------||


Fig6 (Bridge)
e||--19-20-19--------------||
B||-----------20-19-20-19--||
G||------------------------||
D||------------------------||
A||------------------------||
E||------------------------||


Comments