Korn - Counting On Me Chords & Tabs

 

Counting On Me Chords & Tabs

Korn Chords & Tabs

Version: 2 Type: Tab 0 ratings
1 star 2 stars 3 stars 4 stars 5 stars
comments

Counting On Me Tab

Korn
Counting On Me
Take A Look In The Mirror
tabbed by: Robert Walden
All Guitars are distorted unless noted otherwise.
Tuning: ADGCFad

Intro/Verses-Clean
---------------------------
---------------------------
---------------------------
---------------------------
---------------------------
-1-xx-1-xx-1-xx-1-xx-3^(3)-
---------------------------

Prechorus
----------------------------
----------------------------
----------------------------
---3-3---3-3---3-3---3-3----
----------------------------
-1-----1-----1-----1-----3^-
----------------------------

Verses (Guitar Two)
-----------------------
-12---12^(12)-10---8---
---------------------10
-----------------------
-----------------------
-----------------------
-----------------------

Chorus-hold all chords
---------------------
---------------------
---------------------
-3--6-----6--8-----4-
-3--6--4--6--8--6--4-
-1--4--4--4--6--6--2-
-------2--------4----
[ Tab from: http://www.guitartabs.cc/tabs/k/korn/counting_on_me_tab_ver_2.html ]
Bridge-not 100 percent sure on this
----------1-3-3-3-4
-------------------
---0---------------
-------------------
-------------------
-------------------
-1---1-1-----------

Bridge part 2
-------------------------------
-------------------------------
-------------------------------
-3--2--------------------------
-3--2--------------------------
-1--0--3-3-3-3-3-3--3-3-3-3-3-3
-------1-1-1-1-1-1--1-1-1-1-1-1

Bridge part 3
----------------------------------------------------
----------------------------------------------------
----------------------------------------------------
----------------------------------------------------
----------------------------------------------------
-3-3-3-3-3-3--3-3-3-3-3-3--3-3-3-3-3-3--3-3-3-3-3-3-
-1-1-1-1-1-1--1-1-1-1-1-1--1-1-1-1-1-1--1-1-1-1-1-1-
Do this twice and then end bridge on below chords
-----
-----
-----
-3--2
-3--2
-1--0
-----

Thats it, no i wasn't bored enough to tab out the little music box or whatever
thing at the end lol. but ya thats all just piece it together. many more "take a
look in the mirror" tabs to come thats for sure. IM me at kornfellow91 for
questions and/or comments or leave one in correction box above, thanks and enjoy!
Comments