Korn - Counting On Me Chords & Tabs

 

Counting On Me Chords & Tabs

Korn Chords & Tabs

Version: 2 Type: Bass Tab 0 ratings
1 star 2 stars 3 stars 4 stars 5 stars
comments

Counting On Me Bass Tab

   
-------------------------------------------------------------------------------
			     COUNTING ON ME - KoRn
-------------------------------------------------------------------------------

Tabbed By : KoRnKid89
e-mail: XblytheX89@aol.com

Tuning: ADGCF

  Intro/Pre-chorus (slap all):
F|-----------------------------------|
C|-----------------------------------|
G|-----------------------------------|
D|-----------------------------------|
A|--6--X-X--6--X-X--6--X-X--6-X-6-8--|
  (x4)

  Verse:
F|--------------------|
C|--------------------|
G|--------------------|
D|-----8--------8-----|
A|--6-----6--------7--|
  (x7)

F|--------------------|
C|--------------------|
G|--------8-----------|
D|-----8-----8--------|
A|--6-----------8--7--|


  Chorus:
F|---------------|---------------|-----|
C|---------------|---------------|-----|
G|---------------|---------------|-----|
D|-------3-------|-------6-------|-----|
A|--6-------2----|--4-------4----|--7--|
  (2x)

[ Tab from: http://www.guitartabs.cc/tabs/k/korn/counting_on_me_btab_ver_2.html ]
  Bridge pt. 1:
F|---------------|-------------|
C|---------------|-------------|
G|---------------|-------------|
D|---------------|-------------|
A|--1----1--1-1--|----2-2-2-2--|
  (x8)

  
  Bridge pt. 2:   
                 S  SSSS S  S     S S  SSSS S  S
F|------------|----------------|------------------|
C|------------|----------------|------------------|
G|------------|----------------|------------------|
D|------------|----------------|------------------|
A|--6----5----|--1--1111-2--1--|--1-1--1111-2--1--|
  (X3)

  Bridge pt. 3:
F|------------|
C|------------|
G|------------|
D|------------|
A|--6----5----|

  (slap all)
F|----------------|------------------|
G|----------------|------------------|
C|----------------|------------------|
D|----------------|------------------|
A|--1--1111-2--1--|--1-1--1111-2--1--|
  (X4)

F|------------|
C|------------|
G|------------|
D|------------|
A|--6----5----|

  Last note:
F|------------|
C|------------|
G|------------|
D|------------|
A|--5~--------|
| P  pop
| S  slap
| /  slide up
| \  slide down
| h  hammer-on
| p  pull-off
| ~  vibrato
| +  harmonic
| x  Mute note
===============================================================================
Comments