Korn - Counting On Me Chords & Tabs

 

Counting On Me Chords & Tabs

Korn Chords & Tabs

Version: 1 Type: Bass Tab 0 ratings
1 star 2 stars 3 stars 4 stars 5 stars
comments

Counting On Me Bass Tab

   
Artist: Korn
Song: Counting On Me
Album: Take A Look In The Mirror
Tabbed By: Mathias

tuning - A,D,G,C,F

intro (play when drums kick in)
F[---------------------------|
C[---------------------------|
G[---------------------------|
D[-1-1-1-1-1/3--1-1-1-1-1/3--|
A[---------------------------|

verse - i dont think theres any bass on it, can't really tell

prechorus - same as intro

chorus
F[------------------------|
C[------------------------|
G[------------------------|
D[1~---4~------4~---6~----|
A[--------2~-----------4~-|
[ Tab from: http://www.guitartabs.cc/tabs/k/korn/counting_on_me_btab.html ]
bridge pt. 1
F[------------------|
C[------------------|
G[------------------|
D[------------------|
A[-7---7-7---7--7-7-|
"I'm gunna hurt myself this time"

bridge pt. 2
F[-----------------------|
C[-----------------------|
G[-----------------------| repeat this a few times
D[-1~--0~----------------|    & end on first 2 notes
A[---------111111-111111-|

bridge pt. 3
F[--------------------------------------------|
C[--------------------------------------------|
G[--------------------------------------------|
D[------------------------------------1~---0~-|
A[-111111-111111-111111-111111-111111---------|

Outro - no bass on the chimy sounding thingie

How it goes
intro
verse
prechorus
chorus
verse
prechorus
chorus
bridge pt. 1
bridge pt. 2
bridge pt. 3
prechorus
chorus
outro

If any comments contact me at INUTERO9089@aol.com
Comments