Korn - Coming Undone Chords & Tabs

 

Coming Undone Chords & Tabs

Korn Chords & Tabs

Version: 2 Type: Tab

Coming Undone Tab

   
|--BAND:-----------KoRn--------------------------|
|--TITLE:----------Coming-Undone-----------------|
|--ALBUM:----------See-You-On-The-Other-Side-----|
|--TABBER:---------Chance-Lang-------------------|

 Send all Comments (Teeswater_Boy_14@hotmail.com)
                

Tuning :Drop D Tuning (D,A,D,G,B,E)


Intro/Verse:
E|----------------------------------| X4
B|----------------------------------|
G|----------------------------------|
D|-000-0-000-0-000-0-000-0-000-0-0--|
A|-000-0-000-0-000-0-000-0-000-0-0--|
D|-000-0-000-0-000-0-000-0-000-0-0--|


PreChorse:
E|---------------------------------------------| X2
B|-----------------9~---------------------9~---|
G|-77--33----------7~---77--33----------7------|
D|-77--11--33--00--0----55--11--33--00--0------|
A|-55--11--33--00--0----55--11--33--00--0------|
D|---------33--00--0------------33--00--0------|


Chorse:
E|---------------------------------------------------------------------| X2
B|---------------------------------------------------------------------|
G|-7----------------7----------------7----------------7-----------5-5--|
D|-7---0-0-1-1-3-1--7---0-0-1-1-4-1--7---0-0-1-1-4-1--7---0-0-1-1-5-5--|
A|-5---0-0-1-1-3-1--5---0-0-1-1-4-1--5---0-0-1-1-4-1--5---0-0-1-1-3-3--|
D|-0---0-0-1-1-3-1--0---0-0-1-1-4-1--0---0-0-1-1-4-1--0---0-0-1-1------|


Bridge:
E|-----------------------| 
B|-----------------------|  
G|-X--X--X--XXX--X--X----|  
D|-X--X--X--XXX--X--X----|  
A|-X--X--X--XXX--X--X----|
D|-X--X--X--XXX--X--X----|
  rest fingers on strings


Intro/Verse:
E|----------------------------------| X4
B|----------------------------------|
G|----------------------------------|
D|-000-0-000-0-000-0-000-0-000-0-0--|
A|-000-0-000-0-000-0-000-0-000-0-0--|
D|-000-0-000-0-000-0-000-0-000-0-0--|


PreChorse:
E|---------------------------------------------| X2
B|-----------------9~---------------------9~---|
G|-77--33----------7~---77--33----------7------|
D|-77--11--33--00--0----55--11--33--00--0------|
A|-55--11--33--00--0----55--11--33--00--0------|
D|---------33--00--0------------33--00--0------|

[ Tab from: http://www.guitartabs.cc/tabs/k/korn/coming_undone_tab_ver_2.html ]
Chorse:
E|---------------------------------------------------------------------| X2
B|---------------------------------------------------------------------|
G|-7----------------7----------------7----------------7-----------5-5--|
D|-7---0-0-1-1-3-1--7---0-0-1-1-4-1--7---0-0-1-1-4-1--7---0-0-1-1-5-5--|
A|-5---0-0-1-1-3-1--5---0-0-1-1-4-1--5---0-0-1-1-4-1--5---0-0-1-1-3-3--|
D|-0---0-0-1-1-3-1--0---0-0-1-1-4-1--0---0-0-1-1-4-1--0---0-0-1-1------|


Soloish:
E|-----------------------------------------------------------|       
B|-----------------------------------------------------------|       
G|-6~-22-33-44-6~-22-33-44-6~-22-33-44-6~-22-33-44-----------|
D|-6~-22-33-44-6~-22-33-44-6~-22-33-44-6~-22-33-44-7-7-------|
A|----00-00-00----00-00-00----00-00-00----00-00-00-7-7-------|
D|-------------------------------------------------7-7-------|

E|-----------------------------------------------------------|
B|-----------------------------------------------------------|
G|-----------------------------------------------------------|
D|-12-11--11-10-9-8---8-10-77--12-11--11-10-9-8---8-10-7-7---|
A|-12-11--11-10-9-8---8-10-77--12-11--11-10-9-8---8-10-7-7---|
D|-12-11--11-10-9-8---8-10-77--12-11--11-10-9-8---8-10-7-7---|

E|-----------------------------------------------------------|
B|-----------------------------------------------------------|
G|-----------------------------------------------------------|
D|-12-11--11-10-9-8---8-10-77--12-11--11-10-9-8--------------|
A|-12-11--11-10-9-8---8-10-77--12-11--11-10-9-8--------------|
D|-12-11--11-10-9-8---8-10-77--12-11--11-10-9-8--------------|


Chorse:
E|---------------------------------------------------------------------| X2
B|---------------------------------------------------------------------|
G|-7----------------7----------------7----------------7-----------5-5--|
D|-7---0-0-1-1-3-1--7---0-0-1-1-4-1--7---0-0-1-1-4-1--7---0-0-1-1-5-5--|
A|-5---0-0-1-1-3-1--5---0-0-1-1-4-1--5---0-0-1-1-4-1--5---0-0-1-1-3-3--|
D|-0---0-0-1-1-3-1--0---0-0-1-1-4-1--0---0-0-1-1-4-1--0---0-0-1-1------|

Outro:
E|-------------------| 
B|-------------------|  
G|-2-3-2-3-2-3-2-3---|  
D|-2-3-2-3-2-3-2-3---|  
A|-0-1-0-1-0-1-0-1---|
D|-------------------|