Korn - Coming Undone Chords & Tabs

 

Coming Undone Chords & Tabs

Korn Chords & Tabs

Version: 2 Type: Bass Tab

Coming Undone Bass Tab

   
[Verse] x2 (play 5s with drums and x with the clapping)
|------------------------------------------------|
|------------------------------------------------|
|------------------------------------------------|
|-55-x--55-x--55-x--55-x--55-x--55-x--55-x--55-x-|

[Pre-Chorus] x2
|----------------|-------------|
|-77-------------|-77----------|
|----88-------6~-|----88-------|
|-------88-55----|-------88-5~-|

[Chorus] (play all together x2)            
|----------------|              
|----------------|   
|-12~-77-88-10\8-|   
|----------------| x3          
                               
|-------------|                
|-------------|                
|-12~-77-88-5-|               
|-------------| x1   

Rest while guitar does the Fill
[ Tab from: http://www.guitartabs.cc/tabs/k/korn/coming_undone_btab_ver_2.html ]
[Verse] x2 (play 5s with drums and x with the clapping)
|------------------------------------------------|
|------------------------------------------------|
|------------------------------------------------|
|-55-x--55-x--55-x--55-x--55-x--55-x--55-x--55-x-|
                     
[Pre-Chorus] x2
|----------------|-------------|
|-77-------------|-77----------|
|----88-------6~-|----88-------|
|-------88-55----|-------88-5~-|

[Chorus] (play all together x2)            
|----------------|              
|----------------|   
|-12~-77-88-10\8-|   
|----------------| x3          
                               
|-------------|                
|-------------|                
|-12~-77-88-5-|               
|-------------| x1   

[Bridge 1] x4
|-r-e-s-t-|-------------|
|-r-e-s-t-|-------------|
|-r-e-s-t-|-77-88-10-10-|
|-r-e-s-t-|-------------|

[Bridge 2] x4
|----|-r-e-s-t-|
|----|-r-e-s-t-|
|----|-r-e-s-t-|
|-55-|-r-e-s-t-|

[Chorus] (play all together x2)            
|----------------|              
|----------------|   
|-12~-77-88-10\8-|   
|----------------| x3          
                               
|-------------|                
|-------------|                
|-12~-77-88-5-|               
|-------------| x1   

[Outro]
|-----------------|
|-----------------|
|-----------------|
|-5-6-5-6-5-6-5-6-|