Korn - Clown Chords & Tabs

 

Clown Chords & Tabs

Korn Chords & Tabs

Version: 7 Type: Tab 0 ratings
1 star 2 stars 3 stars 4 stars 5 stars
comments

Clown Tab

Artist: Korn
Song:Clown
Album: Korn
Tabber: Daniel- xxkRaZyKoRnFrEaKxx

this is 4 all those korn fans without a 7 string
it's not 100% but it's pretty good...Enjoy

6 string tuned to standerd drop d tuning DADGBE

------------------------------------------------|
----------3b---------2b---------2b--------2~~b--|
------------------------------------------------|  intro
------------------------------------------------|
-0-0-0-0----0-0-0-0----0-0-0-0----0-0-0-0-------|
-2-2-2-2----2-2-2-2----2-2-2-2----2-2-2-2-------|

------------------------------------------------|
------------------------------------------------|
------------------------------------------------|
------------------------------------------------| riff 1
-3/4/3-2/3/2-3/4/3-2/3/2-3/4/3-2/3/2-3/4/2------|
-5/6/5-4/5/4-5/6/5-4/5/4-5/6/5-4/5/4-5/6/4------|


-------------------------------|
-------------------------------|
-------------------------------|
-------------------------------| riff 2
-3/4-2--3/4-2--3/4-1-----------|
-5/6-4--5/6-4--5/6-3-----------|
[ Tab from: http://www.guitartabs.cc/tabs/k/korn/clown_tab_ver_7.html ]
--------------------------------|
--------------------------------|
--------------------------------|
--------------------------------| verse riff-Head
--------------------------------|
------5555--4444--5555--44444---|


----------------------------|
----------------------------|
----------------------------|
----------------------------| verse riff-Munky (pick scrape)
-xxx-xxx-xxx-xxx-xx--x/-----|
----------------------------|


-------------------------------|
-------------------------------|
-------------------------------|
-------------------------------| chorus
-0--0-0--0--0-4/3-3-3/2-2-2/1--|
-2--2-2--2--2-6/5-5-5/4-4-4/3--|


--------6b----------6b--------    -------|
------------------------------    -------|
--------3b----------3b--------    -------|
------------------------------    -------|  bridge
-0----------------------------    -0-1/2-|
-2--0-0-------0-0-0-----------    -2-3/4-|


---------------------|
---------------------|
---------------------|
---------------------| outro
-0-0-0-0-------------|
-0-0-0-0-------------|


any comments email me at xxKornKidxx2003@yahoo.com
Comments