Korn - Bonus Track On Follow The Leader Chords & Tabs

 

Bonus Track On Follow The Leader Chords & Tabs

Korn Chords & Tabs

Version: 1 Type: Tab 0 ratings
1 star 2 stars 3 stars 4 stars 5 stars
comments

Bonus Track On Follow The Leader Tab

artist:korn
song:bonus track on follow the leader
album:follow the leader
Intro:
e-------------------------------------------------------
B-------------------------------------------------------
G-------------------------------------------------------
D-------------------------------------------------------
A-2-1-0-2-1-0-5-5-2-Do this 4x--------------------------
E-2-1-0-2-1-0-5-5-2-------------------------------------
then he fieldly says orale!
e-------------------------------------------------------
B-------------------------------------------------------
G-------------------------------------------------------
D-4-3-0-7-7---------------------------------------------
A-4-3-0-7-7---------------------------------------------
E-2-1-0-5-5---------------------------------------------


I HOPE U DUDES ENJOI THIS PIECE CRAP THAT I TABED OUT
THANK U 


                  KORN ROCK'S!!!!!!!!!!!!
[ Tab from: http://www.guitartabs.cc/tabs/k/korn/bonus_track_on_follow_the_leader_tab.html ]
Comments