Korn - Blind Chords & Tabs

 

Blind Chords & Tabs

Korn Chords & Tabs

Version: 9 Type: Tab 0 ratings
1 star 2 stars 3 stars 4 stars 5 stars
comments

Blind Tab

Blind
KoRn
-Spiders-

Intro:

Gtr1(Munky)  X10                                           Gtr2(Head)
[--5----]     After u play this ten times Head plays this[---------] x1
[--4----]  <--Oh and when ever u play this strum it      [---------]
[--3----]     Up and Down!                               [---------]
[--2----]                                                [---------]
[-------]                                                [---------]
[-------]                                                [-6-7-7-8-]
[-------]                                                [-6-7-7-8-]
 Intro1^                                                  Intro2^
Gtr1                     Gtr2
[--5------5-]X1  Then--> [---------] x1        Oh yea when i type X1
[--4------4-]            [---------]           It means one extra time
[--3------3-]            [---------]           which means 2 :D
[--2------2-]            [---------]           Gay ass smily ^^
[-----------]            [---------]
[-----------]            [-6-7-7-8-]
[-----------]            [-6-7-7-8-]

Gtr1                     Gtr2                 Gtr1    Gtr2
[--5------5-]x1  Then-->[-----------------] &[--5--] & [-----------------]
[--4------4-]           [-----------------] T[--4--]   [-----------------]
[--3------3-]           [-----------------] h[--3--]   [-----------------]
[--2------2-]           [-----------------] e[--2--]   [-----------------]
[-----------]           [-----------------] n[-----]   [-----------------]
[-----------]           [-----------------]  [-----]   [-----------------]
[-----------]           [-0-2-0-3-0-2-0-3-]  [-----]   [-0-2-0-3-0-2-0-3-]
                                            ^^^^^^^^^^^^^^^^^^^^^^^^^^^^^^^
                                               Repeat this part X4
And Then He Goes:
ARE YOU READY!
Gtr1    This is also the chorus
[-----------------------------------------------------------------------------------------]
[-----------------------------------------------------------------------------------------]
[-----------------------------------------------------------------------------------------]
[-5-6-5-7-5-6-5-7-3-3-3-5-6-5-7-5-6-5-7-3-3-3-5-6-5-7-5-6-5-7-3-3-3-5-6-5-7-5-6-5-7-3-3-3-]
[-6-7-6-8-6-7-6-8-4-4-4-6-7-6-8-6-7-6-8-4-4-4-6-7-6-8-6-7-6-8-4-4-4-6-7-6-8-6-7-6-8-4-4-4-]
[-6-7-6-8-6-7-6-8-4-4-4-6-7-6-8-6-7-6-8-4-4-4-6-7-6-8-6-7-6-8-4-4-4-6-7-6-8-6-7-6-8-4-4-4-]
[-4-5-4-6-4-5-4-6-2-2-2-4-5-4-6-4-5-4-6-2-2-2-4-5-4-6-4-5-4-6-2-2-2-4-5-4-6-4-5-4-6-2-2-2-]
 [0-2-0-3-0-2-0-3-6-6-6]<--it should be like this........
Gtr2                                This is Played as many times u can hear it!
[-----------------------------------------------------------------------------------------]
[-----------------------------------------------------------------------------------------]
[-----------------------------------------------------------------------------------------]
[-----------------------------------------------------------------------------------------]
[-0-2-0-3-0-2-0-3-6-6-6-0-2-0-3-0-2-0-3-6-6-6-0-2-0-3-0-2-0-3-6-6-6-0-2-0-3-0-2-0-3-6-6-6-]
[-0-2-0-3-0-2-0-3-6-6-6-0-2-0-3-0-2-0-3-6-6-6-0-2-0-3-0-2-0-3-6-6-6-0-2-0-3-0-2-0-3-6-6-6-]
[-0-2-0-3-0-2-0-3-6-6-6-0-2-0-3-0-2-0-3-6-6-6-0-2-0-3-0-2-0-3-6-6-6-0-2-0-3-0-2-0-3-6-6-6-]
                Play This as many times as u can hear it!!!!

Verse: Gtr 2
[-------------------------------------------------------------]
[-------------------------------------------------------------]
[----9---------------------------10---------------------------]
[----7----------------------------8---------------------------]
[----7----------------------------8---------------------------]
[----7----------------------------8---------------------------]
[-------------------------------------------------------------]
 (......A place inside my mind........A place i like to hide....)
 This is how it goes along with the lyric's then after he say's:
(What is i would die!) then he start's playing this again.....just
listen to the song.
Oh yeah they use a Flanger effect with the Whammy pedal( if u have one!)
Verse: Gtr 1 
[-----------------------------------------------------------]
[----12---------------------------12-------------*(12/17)*--]
[-----X----------------------------X------------------------]
[-----9----------------------------9------------------------]
[-----------------------------------------------------------]
[-----------------------------------------------------------]
After John says (What if i should die?...)U play the ** when 
he says that and the slide it after he finish's the question..

Chorus: Gtr1 & 2
[-----------------------------------------------------------]
[-----------------------------------------------------------]
[-----------------------------------------------------------]
[-----------------------------------------------------------]
[-------------------7---------------------8-----------------]
[-10-9-8-7--7-7-8-8-5---10-9-8-7--7-7-8-8-6-----------------]
[--8/7/6/5--5-5-6-6------8/7/6/5--5-5-6-6-------------------]

Verse2: Gtr 2
[-------------------------------------------------------------]
[-------------------------------------------------------------]
[----9---------------------------10---------------------------]
[----7----------------------------8---------------------------]
[----7----------------------------8---------------------------]
[----7----------------------------8---------------------------]
[-------------------------------------------------------------]
(......Another place I find........ to escape the pain inside )
[ Tab from: http://www.guitartabs.cc/tabs/k/korn/blind_tab_ver_9.html ]
Verse: Gtr 1 
[-----------------------------------------------------------]
[----12---------------------------12-------------*(12/17)*--]
[-----X----------------------------X------------------------]
[-----9----------------------------9------------------------]
[-----------------------------------------------------------]
[-----------------------------------------------------------]
Same thing with this verse you slide after he Asks (..What if 
should Die?..)

Chorus: Gtr1 & 2
[-----------------------------------------------------------]
[-----------------------------------------------------------]
[-----------------------------------------------------------]
[-----------------------------------------------------------]
[-------------------7---------------------8-----------------]
[-10-9-8-7--7-7-8-8-5---10-9-8-7--7-7-8-8-6-----------------]
[--8/7/6/5--5-5-6-6------8/7/6/5--5-5-6-6-------------------]
Oh yea i would like to thank James Alber for the correct verse 
and chorus...i tried houndred's of ways to play it and this is 
the only one i feel is right!!!!

Break down: Gtr 1
[-----------------------------------------------------------------------------------------]
[-----------------------------------------------------------------------------------------]
[-----------------------------------------------------------------------------------------]
[-5-6-5-7-5-6-5-7-3-3-3-5-6-5-7-5-6-5-7-3-3-3-5-6-5-7-5-6-5-7-3-3-3-5-6-5-7-5-6-5-7-3-3-3-]
[-6-7-6-8-6-7-6-8-4-4-4-6-7-6-8-6-7-6-8-4-4-4-6-7-6-8-6-7-6-8-4-4-4-6-7-6-8-6-7-6-8-4-4-4-]
[-6-7-6-8-6-7-6-8-4-4-4-6-7-6-8-6-7-6-8-4-4-4-6-7-6-8-6-7-6-8-4-4-4-6-7-6-8-6-7-6-8-4-4-4-]
[-4-5-4-6-4-5-4-6-2-2-2-4-5-4-6-4-5-4-6-2-2-2-4-5-4-6-4-5-4-6-2-2-2-4-5-4-6-4-5-4-6-2-2-2-]

Break Down: Gtr 2
[-----------------------------------------------------------------------------------------]
[-----------------------------------------------------------------------------------------]
[-----------------------------------------------------------------------------------------]
[-----------------------------------------------------------------------------------------]
[-0-2-0-3-0-2-0-3-6-6-6-0-2-0-3-0-2-0-3-6-6-6-0-2-0-3-0-2-0-3-6-6-6-0-2-0-3-0-2-0-3-6-6-6-]
[-0-2-0-3-0-2-0-3-6-6-6-0-2-0-3-0-2-0-3-6-6-6-0-2-0-3-0-2-0-3-6-6-6-0-2-0-3-0-2-0-3-6-6-6-]
[-0-2-0-3-0-2-0-3-6-6-6-0-2-0-3-0-2-0-3-6-6-6-0-2-0-3-0-2-0-3-6-6-6-0-2-0-3-0-2-0-3-6-6-6-]

Break down2: Gtr1  P=pull off
[--P0-----5----5----P0---5----5----P0-----5-----5-----P0-----5-----5---]
[--P0-----4----4----P0---4----4----P0-----4-----4-----P0-----4-----4---]
[--P0-----3----3----P0---3----3----P0-----3-----3-----P0-----3-----3---]
[--P0-----2----2----P0---2----2----P0-----2-----2-----P0-----2-----2---]
[----------------------------------------------------------------------]
[----------------------------------------------------------------------]
[----------------------------------------------------------------------]
                                   ^^he starts singin here!!!
Break down3: Gtr2
[-------------------------------------------------------------]
[-------------------------------------------------------------]
[----9---------------------------10---------------------------]
[----7----------------------------8---------------------------]
[----7----------------------------8---------------------------]
[----7----------------------------8---------------------------]
[-------------------------------------------------------------]
Break down3: Gtr 1
[-----------------------------------------------------------]
[----12---------------------------12------------------------]
[-----X----------------------------X------------------------]
[-----9----------------------------9------------------------]
[-----------------------------------------------------------]
[-----------------------------------------------------------]
(...I can see i can see         (...I can see i can see
              I'am going blind..)               I'am going blind..)

Pre- Outro: Gtr 1
[-----------------------------------------------------------------------------------------]
[-----------------------------------------------------------------------------------------]
[-----------------------------------------------------------------------------------------]
[-5-6-5-7-5-6-5-7-3-3-3-5-6-5-7-5-6-5-7-3-3-3-5-6-5-7-5-6-5-7-3-3-3-5-6-5-7-5-6-5-7-3-3-3-]
[-6-7-6-8-6-7-6-8-4-4-4-6-7-6-8-6-7-6-8-4-4-4-6-7-6-8-6-7-6-8-4-4-4-6-7-6-8-6-7-6-8-4-4-4-]
[-6-7-6-8-6-7-6-8-4-4-4-6-7-6-8-6-7-6-8-4-4-4-6-7-6-8-6-7-6-8-4-4-4-6-7-6-8-6-7-6-8-4-4-4-]
[-4-5-4-6-4-5-4-6-2-2-2-4-5-4-6-4-5-4-6-2-2-2-4-5-4-6-4-5-4-6-2-2-2-4-5-4-6-4-5-4-6-2-2-2-]
Pre-Outro: Gtr 2
[-----------------------------------------------------------------------------------------]
[-----------------------------------------------------------------------------------------]
[-----------------------------------------------------------------------------------------]
[-----------------------------------------------------------------------------------------]
[-0-2-0-3-0-2-0-3-6-6-6-0-2-0-3-0-2-0-3-6-6-6-0-2-0-3-0-2-0-3-6-6-6-0-2-0-3-0-2-0-3-6-6-6-]
[-0-2-0-3-0-2-0-3-6-6-6-0-2-0-3-0-2-0-3-6-6-6-0-2-0-3-0-2-0-3-6-6-6-0-2-0-3-0-2-0-3-6-6-6-]
[-0-2-0-3-0-2-0-3-6-6-6-0-2-0-3-0-2-0-3-6-6-6-0-2-0-3-0-2-0-3-6-6-6-0-2-0-3-0-2-0-3-6-6-6-]
(..I'm blind!...........I'm blind!............I'm blind!............I'm blind!............)

Outro: Gtr
[--22/24---------22/24---------]
[----------23/18--------23/18--]
[------------------------------]
[------------------------------]
[------------------------------]
[------------------------------]
[------------------------------]
After the bass plays the outro twice u play this as much as needed and fade!
I don't know if he uses effect's or not...but maybe he 1/2 bends and slide 
to the 24 but i dunno iam not realy sure.


anyway i thank Jaymz   for his advice about the tabs.....and James Alber for the verse
and the chorus i didn't actually copy it....i just put the closest thing to it!
Any questions or comment's --------->hating_everything_@hotmail.com
By Rani.......
Comments