Korn - Blind Chords & Tabs

 

Blind Chords & Tabs

Korn Chords & Tabs

Version: 5 Type: Tab 0 ratings
1 star 2 stars 3 stars 4 stars 5 stars
comments

Blind Tab

#----------------------------------PLEASE NOTE--------------------------------#
#This file is the author's own work and represents their interpretation of the#
#song. You may only use this file for private study, scholarship, or research.#
#-----------------------------------------------------------------------------#
#-- File created with Instab - http://www.pconline.com/~smcarey/instab.html --#
#-----------------------------------------------------------------------------#

Author/Artist: Korn
Title: Blind
Transcribed by: Abtin Rashidi
Email: skatekorn86@aol.com

if you have any comments or corrections email me, and enjoy the tab!

-|--0000--0000--0000--0000--0000--0000--0000--0000-|----------0000--0000------
-|--7777--7777--7777--7777--7777--7777--7777--7777-|----------7777--7777------
-|--9999--9999--9999--9999--9999--9999--9999--9999-|----------9999--9999------
-|-------------------------------------------------|--------------------------
-|-------------------------------------------------|--------------------------
-|-------------------------------------------------|--0-2-0-3-----------0-2-0-
 For the chords above give 3 count between each set                           
[ Tab from: http://www.guitartabs.cc/tabs/k/korn/blind_tab_ver_5.html ]
-|----0000--0000----------------0000-----------------0000---------------------
-|----7777--7777----------------7777-----------------7777---------------------
-|----9999--9999----------------9999-----------------9999---------------------
-|----------------------------------------------------------------------------
-|----------------------------------------------------------------------------
-|--3-----------0-2-0-3-0-2-0-3------0-2-0-3-0-2-0-3------0-2-0-3-0-2-0-3-----
                                                                              

-|-0000-----------------------------------------------------------------------
-|-7777-----------------------------------------------------------------------
-|-9999-----------------------------------------------------------------------
-|----------------------------------------------------------------------------
-|-------------------------0-2-0-3-0-2-0-3------------------------------------
-|------0-2-0-3-0-2-0-3----0-2-0-3-0-2-0-3------------------------------------
         are you ready!!   (give the E and A string good distortion)          

------------------------------------------------------------------------------
------------------------------------------------------------------------------
------------------------------------------------------------------------------
------------------------------------------------------------------------------
------------------------------------------------------------------------------
------------------------------------------------------------------------------
                                                                              

Comments