Korn - Blind Chords & Tabs

 

Blind Chords & Tabs

Korn Chords & Tabs

Version: 4 Type: Tab 2 ratings
1 star 2 stars 3 stars 4 stars 5 stars
comments

Blind Tab

   
Artist: Korn
Album: Korn
Song: Blind
Tuning: DADGBE
Transcribed By: Steve Hines
[ Tab from: http://www.guitartabs.cc/tabs/k/korn/blind_tab_ver_4.html ]
Intro: x10
E-5-5-5-5-
B-4-4-4-4-
G-3-3-3-3-
D---------
A---------
D---------
Intro: x1
E---------
B---------
G---------
D-2---2---
A-2-3-2-3-
D---3---3-
Intro: x2
E-5-5-5-5-
B-4-4-4-4-
G-3-3-3-3-
D---------
A---------
D---------
Intro: x1
E---------
B---------
G---------
D-2---2---
A-2-3-2-3-
D---3---3-
Intro: x2
E-5-5-5-5-
B-4-4-4-4-
G-3-3-3-3-
D---------
A---------
D---------
Intro: x1
E-----------------
B-----------------
G-----------------
D-----------------
A-----------------
D-0-2-0-3-0-2-0-3-
Intro: x1
E-5-5-5-5-
B-4-4-4-4-
G-3-3-3-3-
D---------
A---------
D---------
Intro: x1
E-----------------
B-----------------
G-----------------
D-----------------
A-----------------
D-0-2-0-3-0-2-0-3-
Intro: x1
E-5-5-5-5-
B-4-4-4-4-
G-3-3-3-3-
D---------
A---------
D---------
Intro: x1
E-----------------
B-----------------
G-----------------
D-----------------
A-----------------
D-0-2-0-3-0-2-0-3-
Intro: x1
E-5-5-5-5-
B-4-4-4-4-
G-3-3-3-3-
D---------
A---------
D---------
Intro: x1
E-------------------------
B-------------------------
G-------------------------
D-------------------------
A-----------------6-6-6-6-
D-0-2-0-3-0-2-0-3-6-6-6-6-
Main Riff: x8
E-------------------------
B-------------------------
G-------------------------
D-------------------------
A-0-2-0-3-0-2-0-3-6-6-6-6-
D-0-2-0-3-0-2-0-3-6-6-6-6-
Main Riff: x1
E-------------------------
B-------------------------
G-------------------------
D-------------------------
A-0-0-0-0-0-2-0-3-6-6-6-6-
D-0-0-0-0-0-2-0-3-6-6-6-6-
Main Riff: x3
E-------------------------
B-------------------------
G-------------------------
D-------------------------
A-0-2-0-3-0-2-0-3-6-6-6-6-
D-0-2-0-3-0-2-0-3-6-6-6-6-
Verse: x4
E-2-3-2-
B-0-1-0-
G-------
D-------
A-------
D-------
Chorus: x1
E----------------------------------------------------------
B----------------------------------------------------------
G----------------------------------------------------------
D----------------------------------------------------------
A-9-9-9-9-9-11-9-7-7-7-7-7-9-7-5-5-5-5-5-7-5-3-3-3-3-3-5-3-
D-9-9-9-9-9-11-9-7-7-7-7-7-9-7-5-5-5-5-5-7-5-3-3-3-3-3-5-3-
Verse: x4
E-2-3-2-
B-0-1-0-
G-------
D-------
A-------
D-------
Chorus: x1
E----------------------------------------------------------
B----------------------------------------------------------
G----------------------------------------------------------
D----------------------------------------------------------
A-9-9-9-9-9-11-9-7-7-7-7-7-9-7-5-5-5-5-5-7-5-3-3-3-3-3-5-3-
D-9-9-9-9-9-11-9-7-7-7-7-7-9-7-5-5-5-5-5-7-5-3-3-3-3-3-5-3-
Main Riff: x8
E-------------------------
B-------------------------
G-------------------------
D-------------------------
A-0-2-0-3-0-2-0-3-6-6-6-6-
D-0-2-0-3-0-2-0-3-6-6-6-6-
Interlude: x4
E-2-3-3-
B-3-2-2-
G-------
D-------
A-------
D-------
Interlude: x4
E-0-0-
B-0-0-
G-0-0-
D-0-0-
A-4-3-
D-2-1-
Outro: x8
E-----------------5-5-5-5-
B-----------------4-4-4-4-
G-----------------3-3-3-3-
D-------------------------
A-0-2-0-3-0-2-0-3---------
D-0-2-0-3-0-2-0-3---------
Outro: x4
E-----8-
B-9-9---
G-------
D-------
A-------
D-------

I'm not exactly sure if this is right, but it sounds half way decent.
Any questions or comments email me at steve_likes_korn@hotmail.com.

Comments