Korn - Blind Chords & Tabs

 

Blind Chords & Tabs

Korn Chords & Tabs

Version: 15 Type: Tab 0 ratings
1 star 2 stars 3 stars 4 stars 5 stars
comments

Blind Tab

   
KoRn
Blind
Tuned a whole step down(D,a,F,C,G,D,a)
Riff 1      
gtr. 1     flanger
|--------------------|
|------5-5-5-5-------|
|------4-4-4-4-------|
|------3-3-2-3-------| 18x
|--------------------|
|--------------------|
|--------------------|
after the 10th time play gtr2 plays this
Riff 2   distortion           
gtr. 2           2x                        4x
|------------------|-------------------------|
|------------------|-------------------------|
|------------------|-------------------------|
|-----11----12-----|-------------------------|
|-----10----11-----|-------------------------|
|-----9-----10-----|-------------------------|
|---0-----0--------|---0-2--0-3--0-2--0-3----|
   pm    pm
Riff 3
gtr. 1       distortion
|---------------------------------|
|---------------------------------|
|---------------------------------|
|---------------------------------| 12x
|-----4----5----4----5---8-8-8-8--|
|---0-4--0-5--0-4--0-5---8-8-8-8--|
|---0-2--0-3--0-2--0-3---6-6-6-6--|
   |-------------PM-------------|
Riff 4
gtr. 2       distortion
|---------------------------------|
|---------------------------------|
|---------------------------------|
|---------------------------------| 12x
|---------------------------------|
|------------------------1-1-1-1--|
|---0-2--0-3--0-2--0-3------------|
Riff 5 w/wah   hold bend
gtr. 1|-1----------------|-1/2----|-1-----------------|1/2|
|-----------------------------------------------------------|
|-----5----------------------5---------------5--------------|
|-----7------------------7---7---------------7---------7----|
|-----------------------------------------------------------| 2x
|-----------------------------------------------------------|
|-----------------------------------------------------------|
|-----------------------------------------------------------|
Riff 6
gtr. 2
|--------------------------|---------------------------|
|---0----------------------|---0-----------------------|
|---1----------------------|---2-----------------------|
|---2----------------------|---3-----------------------| 4x
|---2----------------------|---3-----------------------|
|--------------------------|---------------------------|
|--------------------------|---------------------------|
Riff 7
gtrs 1&2           distortion  4x                                 1x
|--------------------------------|----------------------------------|
|--------------------------------|----------------------------------|
|--------------------------------|----------------------------------|
|-----------------------------8--|----------------------------------|
|---7-----7/8\7-7------7---8--8--|---7-----7/8\7-7------7---8---6---|
|---7-----7/8\7-7------7---8--6--|---7-----7/8\7-7------7---8---6---|
|---5-----5/6\5-5------5---6-----|---5-----5/6\5-5------5---6---4---|
Riff 8
gtrs.1&2
|-----------------------------------|
|--5-5-5-5--0--------------5-5-5-5--|
|--4-4-4-4--0--------------4-4-4-4--|
|--3-3-2-3--0--------------3-3-2-3--| 5x
|-----------------------------------|
|-----------------------------------|
|-----------------------------------|
Riff 9  bend                   bend       grad.release
gtr.2  |11/2|                 |11/2|      |-1---------|
|------24-----------------|---24--------------------------|
|-------------------------|---------------15--------------|
|-------------------------|---------------17----------17--|
|-------------------------|-------------------------------|fades
|-------------------------|-------------------------------|out
|-------------------------|-------------------------------|
|-------------------------|-------------------------------|
order:
Riff 1, Riff 2,Riff 3, Riff 4,
Riff 5, Riff 6,Riff 7, Riff 5,
Riff 6, Riff 7,Riff 3, Riff 4,
Riff 8, Riff 5,Riff 6, Riff 9
[ Tab from: http://www.guitartabs.cc/tabs/k/korn/blind_tab_ver_15.html ]
Comments