Korn - Blind Chords & Tabs

 

Blind Chords & Tabs

Korn Chords & Tabs

Version: 11 Type: Tab 0 ratings
1 star 2 stars 3 stars 4 stars 5 stars
comments

Blind Tab

I can't believe that nobody has got this right! Come on! This is an easy song!

Tuning:ADGCFAD (as everyone i'm sure knows)

Yes,this is on a 7-string,but you can use it on any tuning thats standard no matter
how many steps down or up on a 6-string. I play it on a 6-string tuned to CFBbEbGC
and it sounds good.

Intro(Guitar1)

  (distortion/little bit of chorus)
D|--5555-------------
A|--4444-------------
F|--2222-------------
C|-------------------    4X
G|-------------------
D|-------------------
A|-------------------

(Than Bass Enters)

Intro(Guitar1)

D|--5555-------------
A|--4444-------------
F|--2222-------------
C|-------------------   6X
G|-------------------
D|-------------------
A|-------------------

Guitar2 enters

Intro(Guitar2)

   (Distortion)
D|------------------
A|------------------
F|------------------
C|------------------   1X
G|---10-11----------  
D|---9-10-----------
A|--0-0-------------

Guitar1 plays intro 2X

Guitar2 plays intro 1X
Guitar1 plays intro 2X
Intro(Guitar2)

   (Distortion)
D|------------------
A|------------------
F|------------------
C|------------------  1X
G|------------------
D|------------------
A|--0-2-0-3-0-2-0-3-

Guitar1 plays intro 1X

Intro(Guitar2)
[ Tab from: http://www.guitartabs.cc/tabs/k/korn/blind_tab_ver_11.html ]
   (Distortion)
D|------------------
A|------------------
F|------------------
C|------------------  1X
G|------------------
D|------------------
A|--0-2-0-3-0-2-0-3-

Guitar1 plays intro 1X

Intro(Guitar2)

   (Distortion)
D|------------------
A|------------------
F|------------------
C|------------------  1X
G|------------------
D|------------------
A|--0-2-0-3-0-2-0-3-

Guitar1 plays intro 1X

(Distortion)
D|------------------
A|------------------
F|------------------
C|------------------  1X
G|------------------
D|------------------
A|--0-2-0-3-0-2-0-3-

Guitar1 plays intro 1X

Chorus(Guitars1&2) (Now here's where everybody gets it wrong)

  (Distortion)
D|-----------------------
A|-----------------------
F|-----------------------
C|-----------------------  4X
G|------------------3333-
D|--0-4-0-5-0-4-0-5-1111-
A|--0-2-0-3-0-2-0-3------

(Than pause for like 3 seconds)


Chorus(Guitars1&2) 

  (Distortion)
D|-----------------------
A|-----------------------
F|-----------------------
C|-----------------------  8X
G|------------------3333-
D|--0-4-0-5-0-4-0-5-1111-
A|--0-2-0-3-0-2-0-3------

Thats all I know! I know this is right because i saw it in a Guitar World where
munky and head explained how to play it, and i watched the video! So Enjoy!
Comments