Korn - Blind Chords & Tabs

 

Blind Chords & Tabs

Korn Chords & Tabs

Version: 9 Type: Bass Tab 0 ratings
1 star 2 stars 3 stars 4 stars 5 stars
comments

Blind Bass Tab

   
Tabbed by DiscipleOfKoRn
This is my first tab and I'm only 12 so don't hate me if it sucks.
Dropped tuning with 5 strings
A
D
G
C
F
                (15 sec.)
|-------------------------|
|-------------------------|
|----13-------------------|
|-------12-11-----(11)----|
|-12-------------------12-|

|-----------------------|
|-----------------------|
|-----------------------|
|-----------------------|
|-0-----------0---------|

|--------------------------|
|--------------------------|
|--------------------------| Do 2 times
|---------1111--------1111-|
|-02030203----02030203-----|

|-------| |--------------------------|
|-------| |--------------------------|
|-Pause-| |--------------------------| Do 2 times
|-------| |---------1111--------1111-|
|-------| |-02030203----02030203-----|

|----------------------------------------------|
|----------------------------------------------|
|----------------------------------------------|
|----------1111--------1111--------1111--------|
|-000030203----02030203----02030203----02030203|

|---------------------------------------------------------------------|
|---------------------------------------------------------------------|
|---------------------------------------------------------------------|  
|-0---(0)-00000---(0)-00000---(0)-00001---(1)-11110---(0)-00001---(1)-|
|---------------------------------------------------------------------|

|---------------------------------|
|---------------------------------|
|---------------------------------|
|-11110---(0)-00001---(1)-1-1-0h1-|
|---------------------------------|
[ Tab from: http://www.guitartabs.cc/tabs/k/korn/blind_btab_ver_9.html ]
|-------------------------------------------------------------|
|-------------------------------------------------------------|
|-------------------------------------------------------------|
|--------------5--------------4--------------3--------------2-|
|00000-00000-00-00000-00000-00-00000-00000-00-00000-00000-00--|

|---------------------------------------------------------------------|
|---------------------------------------------------------------------|
|---------------------------------------------------------------------| 
|-0---(0)-00000---(0)-00000---(0)-00001---(1)-11110---(0)-00001---(1)-|
|---------------------------------------------------------------------|

|-------------------------------------------------------------|
|-------------------------------------------------------------|
|-------------------------------------------------------------|
|--------------5--------------4--------------3--------------2-|
|00000-00000-00-00000-00000-00-00000-00000-00-00000-00000-00--|

|--------------------------|
|--------------------------|
|--------------------------| Do 2 times
|---------1111--------1111-|
|-02030203----02030203-----|

|----------------------------------------------|
|----------------------------------------------|
|----------------------------------------------|
|----------1111--------1111--------1111--------|
|-000030203----02030203----02030203----02030203|

|---------------------|
|---------------------|
|---------------------|
|-0----(0)-1-0----(0)-|
|---------------------|

|--------------------------|
|--------------------------|
|--------------------------| Do 8 times
|---------1111--------1111-|
|-02030203----02030203-----|


Sorry that's all because I don't know the outro.
Have fun.
Comments