Korn - Blind Chords & Tabs

 

Blind Chords & Tabs

Korn Chords & Tabs

Version: 6 Type: Bass Tab 0 ratings
1 star 2 stars 3 stars 4 stars 5 stars
comments

Blind Bass Tab

Korn - Blind
INTRO                                          x3
|-------------------|------------|--------------|
|----7--------------|------------|0------------0|
|------7-3---0------|------------|0------------0|
|-------------------|--0------0--|--0--2--0--3--|
this doesn't show the timing but it is simple to work out.
[ Tab from: http://www.guitartabs.cc/tabs/k/korn/blind_btab_ver_6.html ]
MAIN RIFF - slapped
|*----------------------*|
|------------------------|
|*----------------------*|
|-0-2-0-3-0-2-0-3-6666---|

VERSE - slapped
|----------------------|
|*--------------------*|
|--0-0-00--0-1-1-11--1-|
|*--------------------*|

CHORUS
|---------------------------------|
|-0------------------------------0|
|0--------------6----------------0|
|---5-6--5-5-6------5-6--5-5-6-4--|

OUTRO
|--------------------|
|--------------------|
|-15-------16--------|  REPEAT AND FADE
|----13-14----14-13--|
Comments