Korn - Blind Chords & Tabs

 

Blind Chords & Tabs

Korn Chords & Tabs

Version: 1 Type: Bass Tab 1 rating
1 star 2 stars 3 stars 4 stars 5 stars
comments

Blind Bass Tab

Artist:    	Korn
Song Title:	Blind
Tabbed By:	Wanker Spice
Tuning: DADG	(4 String)
This tab is a correction of the earlier tab posted by Woody (woody3333@hotmail.com).  
Found out Woody's version on a 5 string is supposed to be tuned ADADG rather than ADGCF.
It may still play the same, I'm not sure.  Mine is for those of us with only 4 strings.
For those of you with 5 strings, play as much as you can down on the 1st two strings, 
and you'll have to transcribe the rest for yourselves.  (I can't do EVERYTHING for ya!)
You can e-mail any corrections to me ( WankerSpice@altavista.com ).

INTRO

Wait 6x Before Playing (Start at the VERY End of 4th Intro Riff on Guitar).

G--||--------------------------||------------------------||
D--||-------7h-----------------||------------------------||
A--||-----6--------6h-----4h---||--0h--------------------||
D--||-7------------------------||------------------------||

Wait 3 Measures Then Wait for Guitar to Play 02 03 02 and Play
G--||--------------------------------------------------|| \  /  ----
D--||--------------------------------------------------||  \/      /
A--||--------------------------------------------------||  /\    -- 
D--||--0-----------------------------------------------|| /  \  /___

Wait 4 More Measures, Then You Start With...

G--||--------------------------------------------------|| \  /  ----
D--||--------------------1111---------------------1111-||  \/      /
A--||-0-2--0-3--0-2--0-3-------0-2--0-3--0-2--0-3------||  /\    -- 
D--||--------------------------------------------------|| /  \  /___

Break.. Then

G--||--------------------------------------------------|| \  /  ----
D--||--------------------1111---------------------1111-||  \/      /
A--||-0-2--0-3--0-2--0-3-------0-2--0-3--0-2--0-3------||  /\    -- 
D--||--------------------------------------------------|| /  \  /___

G--||--------------------------------------------------||
D--||------------------1111---------------------1111---||
A--||-0000-3--0-2--0-3-------0-2--0-3--0-2--0-3--------||
D--||--------------------------------------------------||


G--||--------------------------------------------------||
D--||--------------------1111---------------------1111-||
A--||-0-2--0-3--0-2--0-3-------0-2--0-3--0-2--0-3------||
D--||--------------------------------------------------||

1st & 2nd Verses (Listen for a "Click" Noise to Hear the Bass Timing).

G--||--------------------------------------------------||
D--||--------------------------------------------------||
A--||--------------------------------------------------||
D--||-0h---0-0--0-1h---1--1-1---1----------------------||
								___
G--||--------------------------------------------------|| \  /     \ 
D--||--------------------------------------------------||  \/    __/
A--||--------------------------------------------------||  /\      \
D--||-0h---0--0-0---0-1h---1--1-1---1------------------|| /  \  ___/

1st & 2nd Choruses.  Both Verses, Hold Last Note on Repeat.

G--||--------------------------------------------------|| \  /  ----
D--||--------------------------------------------------||  \/      /
A--||--------------------------------------------------||  /\    -- 
D--||-0-0/100--000/1-6-0-0/100--000/1-4----------------|| /  \  /___

Bridge
[ Tab from: http://www.guitartabs.cc/tabs/k/korn/blind_btab.html ]
G--||--------------------------------------------------|| \  /  ----
D--||--------------------1111---------------------1111-||  \/      /
A--||-0-2--0-3--0-2--0-3------0-2--0-3--0-2--0-3-------||  /\    -- 
D--||--------------------------------------------------|| /  \  /___

G--||--------------------------------------------------||
D--||------------------1111----------------------1111--||
A--||-0000-3--0-2--0-3--------0-2--0-3--0-2--0-3-------||
D--||--------------------------------------------------||

Hold Last Note 4 Measures, Then Wait 4 Measures Before 3rd Chorus.

G--||--------------------------------------------------||-----------------|
D--||--------------------1111--------------------1111--||-0h--------------|
A--||-0-2--0-3--0-2--0-3--------0000-3--0-2--0-3-------||-----------------|
D--||--------------------------------------------------||-----------------|

3rd Chorus

G--||--------------------------------------------------||
D--||--------------------------------------------------||
A--||--------------------------------------------------||
D--||-0h---0-0--0-1h---1--1-1---1----------------------||

G--||--------------------------------------------------|| \  /  ----
D--||--------------------------------------------------||  \/      /
A--||--------------------------------------------------||  /\    -- 
D--||-0h---0--0-0---0-1h---1--1-1---1------------------|| /  \  /___

G--||--------------------------------------------------||
D--||-------------------------------------------1111---||
A--||---------------------------------3--3--3-3--------||
D--||-0h---0--0-0---0-1h---1--1-1---1------------------||

Outtro

G--||--------------------------------------------------|| \  /    /|
D--||--------------------1111---------------------1111-||  \/    / |
A--||-0-2--0-3--0-2--0-3-------0-2--0-3--0-2--0-3------||  /\   /__|_
D--||--------------------------------------------------|| /  \     |

Repeat Last Part Until Fade Out

G--||-2-----3---||-----2-----3-------------------------||
D--||---0-------||*---0---0-1---1---------------------*||
A--||-----1---1-||*-----------------------------------*||
D--||-----------||-------------------------------------||

- - - - - - - - - - - - - - - - - - - WOODY'S TAB - - - - - - - - - - - - - - - - - - - - - -

INTRO

F|----------------------|
C|-----9----------------|
G|-------9--5-----------|
D|-7-----------------7--|
A|----------------------|

F|------------------------------|
C|------------------------------|
G|------------------------------|
D|------------------------------|
A|--------(5)--------(5)--------|

CHORUS
F|----------------------------|
C|*--------------------------*|
G|----------------------------|
D|*--------------------------*|
A|--0-2--0-3--0-2--0-3--6666--|


VERSE
F|------------------------------------|
C|*----------------------------------*|
G|------------------------------------|
D|*----------------------------------*|
A|--5-5-----5-5--5-5-6-6-----6-6--6-6-|


PRE-CHORUS
F|-------------------------------------------------------------|
C|*-----------------------------------------------------------*|
G|-------------------------------------------------------------|
D|*-----------------------------------------------------------*|
A|-5-5--5555-0-5-6-5--5555-0-5-6-5--5555-0-5-6-5--5555-0-6-4---|


OUTRO
F|-------------------------|
C|*----11-------12--------*|
G|-9---- 9--10---10--------|
D|*-----------------------*|
A|-------------------------|

Comments