Korn - Bbk Chords & Tabs

 

Bbk Chords & Tabs

Korn Chords & Tabs

Version: 4 Type: Tab 0 ratings
1 star 2 stars 3 stars 4 stars 5 stars
comments

Bbk Tab

   
Band- Korn
Song- BBK
[ Tab from: http://www.guitartabs.cc/tabs/k/korn/bbk_tab_ver_4.html ]
Key:
O=Wah pedal open
C=Wah pedal closed
x=muted
/=slide
Intro:
   OOOOOOOOOO CCCCCC
D-------------------------------------|
A-------------------------------------|
F--3333333333-444444------------------|
G-------------------------------------|
C-------------------------------------|
D-------------------------------------|
A-------------------------------------|X4
Intro (cont'd):
D-----666666/18--19-----------------------|
A-----xxxxxx-xx--xx-----------------------|
F-----333333/15--16-----------------------|
G-----------------------------------------| 
C-2---------------------------------------|
D-2---------------------------------------|
A-0-----------------0---------------------|
(2-2-0 only played first time)
Verse 1&2:
D--------14-------------------------------------------|
A---17---17-------------------------------------------|
F---16-------------/11----11------11------------------|
G------------------/9------9-------8-----7----------9-|
C---------------------------------------------9-------|
D-----------------------------------------------------|
A-----------------------------------------------------|
Chorus:
D---------------------------------20-20-20-----19-19-19----------------|
A--19-19-19-19-19-19-19-19-19-----x--x--x------x---x--x----------------|
F---x-x--x--x--x--x--x--x--x------17-17-17-----16-16-16----------------|
G--16-16-16-16-16-16-16-16-16------------------------------------------| 
C----------------------------------------------------------------------|
D----------------------------------------------------------------------|
A----------------------------------------------------------------------|
Chorus (cont'd):
D-----------------------------------------------------|
A-----18-18-18----------------------------------------|
F-----x--x--x----17-17-17-17-17-17-17-17-17-17--------|
G-----15-15-15---x--x--x--x--x--x--x--x--x--x---------| 
C----------------15-15-15-15-15-15-15-15-15-15--------|
D-----------------------------------------------------|
A-----------------------------------------------------|
Chorus (cont'd):
D------------------------------------------|
A------------------------------------------|
F------------------------------------------|
G------------------------------------------| 
C------------------------------------------|
D-----------1------------1--2--------------|
A---0---0------0-----0---------------------|
Chorus (cont'd):
D---------------------------------20-20-20-----19-19-------------------|
A--19-19-19-19-19-19-19-19-19-----x--x--x------x---x-------------------|
F---x-x--x--x--x--x--x--x--x------17-17-17-----16-16-------------------|
G--16-16-16-16-16-16-16-16-16------------------------------------------| 
C----------------------------------------------------------------------|
D----------------------------------------------------------------------|
A----------------------------------------------------------------------|
Chorus (cont'd):
D---7-----------8-8-8-8-8-8-8-8-8-8---------|
A---x---6-6-6---x-x-x-x-x-x-x-x-x-x---------|
F---4---x-x-x---5-5-5-5-5-5-5-5-5-5---------|
G-------3-3-3-------------------------------| 
C-------------------------------------------|
D-------------------------------------------|
A------------------------------------------|
Verse 3:
D---------------------------------0---2----------0/1---|
A----------------------------0-------------------------|
F------------------------------------------3-----------|
G----------------------------------------------------3-| 
C------------------------------------------------------|
D-------1-----------1----------------------------------|
A--0-0-----0------0---0--------------------------------|
"Let me be me...":
D-------0-2-------0-1----|
A---0----------3---------|
F------------------------|
G------------------------| 
C------------------------|
D------------------------|
A------------------------|
Bridge ("Taken away....):
D---------------------------0-----------0------------|
A---------------------------3---3-------3-----3------|
F----------------------------------------------------|
G----------------------------------------------------| 
C----------------------2-------------1---------------|
D-----1--------1-------------------------------------|
A-0-0---0----0---0-----------------------------------|
Bridge (cont'd):
D------0--2---------0--2-------|
A------------------------------|
F------------------------------|
G------------------------------| 
C--2-------------1-------------|
D------------------------------|
A------------------------------|
Bridge (cont'd):
D-----0-------------0------------0----------------|
A-----3----3--------3----3-------3----3-----------|
F-------------------------------------------------|
G-------------------------------------------------| 
C--2-------------1------------2-------------------|
D-------------------------------------------------|
A-------------------------------------------------|
Bridge (cont'd):
D-----0---2----------0---2---------0-----2--------|
A-------------------------------------------------|
F-------------------------------------------------|
G-------------------------------------------------| 
C--2-------------1------------2-------------------|
D-------------------------------------------------|
A-------------------------------------------------|
Bridge (cont'd):
D-----0-------------0------------------------0--2------0-2----------|
A-----3----3--------3----3-------5----------------------------------|
F-------------------------------------------------------------------|
G-------------------------------------------------------------------| 
C--1-------------2------------1-----------1---------2---------1-----|
D-------------------------------------------------------------------|
A-------------------------------------------------------------------|
Interlude:
D---------------------------|
A---------------------------|
F---------------------------|
G---------------------------| 
C---------------------------|
D------1--------------------|
A--0-0---0---0-0---0--------|
Chorus:
D-------------------------|
A-------------------------|
F-------------------------|
G------4---3-----5--------| 
C--2---2---1-----3--------|
D--2---2---1-----3--------|
A--0----------------------|
Outro:
D---6-6-6-6-6-6/18--18--18----|
A---x-x-x-x-x-x/-x---x---x----|
F---3-3-3-3-3-3/15--15--15----|
G-----------------------------| 
C-----------------------------|
D-----------------------------|
A-----------------------------|
Comments