Korn - Bbk Chords & Tabs

 

Bbk Chords & Tabs

Korn Chords & Tabs

Version: 1 Type: Bass Tab 0 ratings
1 star 2 stars 3 stars 4 stars 5 stars
comments

Bbk Bass Tab

   
BBK BASS TAB BY KORN

(after guitar intro)   Key-*=let ring for short time) H=Hammer on
P=pop with finger

F|---
C|---
G|-3p*(with distortion or Fuzz)(turn off after a quick second)
D|---
A|---

F|---------------------
C|---------------------
G|X-X----X-X-X-X-------
D|X-X----X-X-X-X-------
A|X-X-0*-X-X-X-X-0-0-0(<---Played quickly)  PLAYED 3 TIMESF|-------------------------
C|------------------------3p*(with distortion or fuzz turn off after quick second)
G|X-X----X-X-X-X-------X-X
D|X-X----X-X-X-X-------X-X
A|X-X-0*-X-X-X-X-0-0-0-X-X
F|--------------------
C|--------------------
G|X-X----X-X-X-X------
D|X-X----X-X-X-X------
A|X-X-0*-X-X-X-X-0-0-0(<---Played quickly)  PLAYED 3 TIMES
F|-------------------------3p*(with distortion or fuzz turn off after quick second)
C|-------------------------
G|X-X----X-X-X-X-------X-X
D|X-X----X-X-X-X-------X-X
A|X-X-0*-X-X-X-X-0-0-0-X-X


       

F|------------------------
C|----------------------3P*(with breife diestortion Or fuzz)
G|X---X---X---X---X---X
D|X-X-X-X-X-X-X-X-X-X-X					8 TIMES
A|X-X-X-X-X-X-X-X-X-X-X

	Okay for the part above i figured out to slap
	to get the sound fieldy has have your slapping hand using the 
	pinky finger on the strings slap and mute the notes with the 
	pinky finger & mute the strings with your fingering hand.F|-------------------
C|-------------------
G|X-X----X-X-X-X-----
D|X-X----X-X-X-X-----
A|X-X-0*-X-X-X-X-0-0-0(<---Played quickly)  PLAYED 3 TIMES
F|-------------------------3p*(with distortion or fuzz turn off after quick second)
C|-------------------------
G|X-X----X-X-X-X-------X-X
D|X-X----X-X-X-X-------X-X
A|X-X-0*-X-X-X-X-0-0-0-X-X

F|
C|----------------------3P*(with breife diestortion Or fuzz)
G|X---X---X---X---X---X
D|X-X-X-X-X-X-X-X-X-X-X					8 TIMES
A|X-X-X-X-X-X-X-X-X-X-XGuitar solo thing TAKE A REST FROM SLAPPING THE *** OUT OF BASS MAKE SURE FINGER IS 
NOT BROKEN
[ Tab from: http://www.guitartabs.cc/tabs/k/korn/bbk_btab.html ]
(THIS PART YOU CAN PLUCK OR SLAP ON A LIVE VIDEO I SAW HE PLUCKED)
F|--------------------------------------
C|--------------------------------------
G|--------------------------------------
D|--------------------------------------
A|0-0-0-0-6-0--0-0-6--0-0-0-0-6-0--0-0-6<--PLAY 2 TIMES

F|-------
C|-------
G|-------
D|------- PLAY ONE TIME
A|X-X-X-X

F|--------------------------------------
C|--------------------------------------
G|--------------------------------------
D|--------------------------------------
A|0-0-0-0-6-0--0-0-6--0-0-0-0-6-0--0-0-6<--PLAY 2 TIMES


F--------------------------------------------------------------
C--------------------------------------------------------------
G------------------------------------------------15------------ FOR THE DISTORTION HAVE IT ON
D0<--WITH DISTORTION--------------------------14-----14\-------ONLY FOR THE OPEN D AND NOT THE WHOLE
A--------------------0-----0--12-------12----------------0H1/-- PART.rest FOR A BIT.....F|--------------------------------------
C|--------------------------------------
G|--------------------------------------
D|--------------------------------------
A|0-0-0-0-6-0--0-0-6--0-0-0-0-6-0--0-0-6<--PLAY 2 TIMES

F|-------
C|-------
G|-------
D|-------PLAY ONE TIME 
A|X-X-X-X

F|--------------------------------------
C|--------------------------------------
G|--------------------------------------
D|--------------------------------------
A|0-0-0-0-6-0--0-0-6--0-0-0-0-6-0--0-0-6<--PLAY 2 TIMES


FOR THE PART WHERE DAVIS IS KINDA LIKE SCATING 


A|0<----WITH DISTORTIONFOR THE BEAK DOWN WITH THE FUNKY BEAT JUST REST FOR A SECONDF
C
G|X-X----X-X-X-X
D|X-X----X-X-X-X
A|X-X-0*-X-X-X-X-0-0-0(<---Played quickly)  PLAYED 3 TIMES
F|-------------------------3p*(with distortion or fuzz turn off after quick second)
C|-------------------------
G|X-X----X-X-X-X-------X-X
D|X-X----X-X-X-X-------X-X
A|X-X-0*-X-X-X-X-0-0-0-X-XFOR THE LAST LITTLE PART HAVE DISTORTION ON


ITS ALL ON THE A STRINGA|0-----3/7\5-5 REST 0-----3/1/5-5 <----THIS WHOLE PART PLAYED 7 TIMES...
ENDING    
WITH DISTORTION
A|0---

SLAP HARD ITS JUST AN OPEN NOTE A COUPLE TIMES JUST SLAP WHEN YOU HEAR BASS DRUM...
IF ITS WRONG SORRY BUT I THINK ITS PRETTY RITE..... IF YOU GOT CORRECTIONS EMAIL ME
EKZY@HOTMAIL.com
Comments