Korn - Ball Tongue Chords & Tabs

 

Ball Tongue Chords & Tabs

Korn Chords & Tabs

Version: 5 Type: Tab 0 ratings
1 star 2 stars 3 stars 4 stars 5 stars
comments

Ball Tongue Tab

Artist:Korn  (the best band in the world)
Song: Ball Tounge
Album: Korn
Tabber: Daniel- xxkRaZyKoRnFrEaKxx(at mxtabs.net) xxkRaZyKoRnKiDxx(here)

i know that korn plays a 7 string guitar tuned to ADGCFAD
but i don't have a 7 string yet so i tabbed it for those
korn fans without a 7 string guitar.

6 string guitar tuned to standerd drop d tuning DADGBE

--------------------------------------------|
--------------------------------------------|
--------------------------------------------|
--------------------------------------------|  intro 1
---2/1--5/4--2/1--8-7---2/1--5/4--2/1--8-7--|
---2/1--5/4--2/1--8-7---2/1--5/4--2/1--8-7--|

--------------------------------------------|
--------------------------------------------|
--------------------------------------------|
--------------------------------------------|
---8-000-7---8-0-0-0-7----------------------|
---8-000-7---8-0-0-0-7----------------------|
[ Tab from: http://www.guitartabs.cc/tabs/k/korn/ball_tongue_tab_ver_5.html ]
------------------------------------------------------|
------------------------------------------------------|
------------------------------------------------------|
------------------------------------------------------|
--2/1--5/4--2/1--5/4--2/1----2/1--5/4--2/1--5/4--2/1--|
--2/1--5/4--2/1--5/4--2/1----2/1--5/4--2/1--5/4--2/1--|
                                                           intro 2
----------------------------------------------------|
----------------------------------------------------|
----------------------------------------------------|
----------------------------------------------------|
--2/1--5/4--2/1--5/4--2/1----2/1--5/4--2/1--8-00-7--|
--2/1--5/4--2/1--5/4--2/1----2/1--5/4--2/1--8-00-7--|

------------------------14^--------------|
-------14^-----17^-----------------------|
-----------------------------------------|
-----------------------------------------|        post intro
-----------------------------------------|
-----------------------------------------|

-------------16^---------------------|
-------------------------------------|
-------------------------------------|
-------------------------------------|  verse
-------------------------------------|
-------------------------------------|

------------------------------------|
------------------------------------|
------------------------------------|
------------------------------------|  chorus
--0-0-0-0----1-1-1-1----------------|
--2-2-2-2----3-3-3-3----------------|

-------8~~~~~~~~~~---------|
----------8~~~~~~~~~~~-----|
---------------------------|
---------------------------|
---------------------------|
---------------------------|

---------------------------------------|
---------------------------------------|
-------<6-----<4---------------<4------| "how can i......"
----------------------<5---------------|
---------------------------------------|
---------------------------------------|

any comments e-mail me at xxKornKidxx2003@yahoo.com
Comments