Korn - Ass Itch Chords & Tabs

 

Ass Itch Chords & Tabs

Korn Chords & Tabs

Version: 3 Type: Tab 0 ratings
1 star 2 stars 3 stars 4 stars 5 stars
comments

Ass Itch Tab

Band: Korn
Song:Ass Itch
Album:Life is peachy
Standard tuning
Tabbed by:michael angelo b. tindugan

Intro:
|--------------------------------|
|--------------------------------|
|-----14-14-14-14-14-13-13-13-13-|
|--------------------------------|
|-2-2-12-12 12 12 12-11-11-11-11-|
|-0-0----------------------------|

Verse:
|--------------------------------|
|--------------------------------|
|-----14-14-14-14-14-13-13-13-13-|
|--------------------------------|
|-2-2-12-12 12 12 12-11-11-11-11-|
|-0-0----------------------------|

Verse 2:
|--------------|
|--------------|
|--------------|
|-----7-8-9----|
|-----5-6-7----|
|--------------|
Pain!!

Chorus:
|----------------------|
|----------------------|
|-----14-14-14-14-14-14|
|----------------------|
|-2-2-12-12-12-12-12-12|
|-0-0------------------|


Verse:
|--------------------------------|
|--------------------------------|
|-----14-14-14-14-14-13-13-13-13-|
|--------------------------------|
|-2-2-12-12 12 12 12-11-11-11-11-|
|-0-0----------------------------|

[ Tab from: http://www.guitartabs.cc/tabs/k/korn/ass_itch_tab_ver_3.html ]
Verse 2:
|--------------|
|--------------|
|--------------|
|-----7-8-9----|
|-----5-6-7----|
|--------------|
Pain!!

Chorus:
|----------------------|
|----------------------|
|-----14-14-14-14-14-14|
|----------------------|
|-2-2-12-12-12-12-12-12|
|-0-0------------------|


Interlude:
|----17-----------17--------|
|-------16-15---------16-15-|
|-14-----------14-----------|
|---------------------------|
|---------------------------|
|---------------------------|

Bridge:
|------------------|
|------------------|
|------------------|
|-2x-x-1-x-1-x-2-1-|
|-2x-x-1-x-1-x-2-1-|
|-2x-x-1-x-1-x-2-1-|
   just set me free
 
|--------------------------------|
|--------------------------------|
|-----14-14-14-14-14-13-13-13-13-|
|--------------------------------|
|-2-2-12-12 12 12 12-11-11-11-11-|
|-0-0----------------------------|

Chorus:
|----------------------|
|----------------------|
|-----14-14-14-14-14-14|
|----------------------|
|-2-2-12-12-12-12-12-12|
|-0-0------------------|

Outro:
|------------------|
|------------------|
|------------------|
|-2x-x-1-x-1-x-2-1-|
|-2x-x-1-x-1-x-2-1-|
|-2x-x-1-x-1-x-2-1-|
Comments