Korn - Another Brick In The Wall Chords & Tabs

 

Another Brick In The Wall Chords & Tabs

Korn Chords & Tabs

Version: 2 Type: Tab 0 ratings
1 star 2 stars 3 stars 4 stars 5 stars
comments

Another Brick In The Wall Tab

ANOTHER BRICK IN THE WALL

KORN

GREATEST HITS VOL.1

Tabbed by: Robert Johnstone
Written by: R .Waters
This is a great cover of another brick in the wall originally performed by Pink Floyd. 
off korn's latest album and is a more heavier version with solid riffs! This is the 
song by Korn, Enjoy!


Intro/riff 1(lots of distortion)
E-----------------------------------------------------|
B-----------------------------------------------------|
G-----------------------------------------------------|
D----5--------5---------5--------5--------5--------5--|(repeat a few times)
A----5--------5---------5--------5--------5--------5--|
E----5--------5---------5--------5--------5--------5--|

Riff 2
E---------------------------------------------------------------------------------|
B---------------------------------------------------------------------------------|
G---------------------------------------------------------------------------------|
D---5------5-----5------5-----5------5-----5-------3------------------------------|
A---5------5-----5------5-----5------5-----5-------3------------------------------|
E---3------3-----3------3-----3------3-----3-------1------------------------------|

These two are repeated over and over again!just play along with the song!

Solo:
E--------------------------------------10-----------------------------------------|
B13p---10------10-----------10------13b-----10---10---10-------------------------|
G---------------12-------12b----------------------10---10----10-------------------|
D---------------------------------------------------------------------------------|
A---------------------------------------------------------------------------------|
E---------------------------------------------------------------------------------|

E--------------------------------------------------------------------------------|
B---13-b----15b---17b---13b------13p--10--------10------10s9---------------------|
G---------------------------------------------------12---------------------------|
D--------------------------------------------------------------------------------|
A--------------------------------------------------------------------------------|
E--------------------------------------------------------------------------------|

E-------------------------------------------------------------------------------|
B--------------------------------------10----10------10---10-------10---12--10--|
G---------9------------12------------10----10------10---10-------10---12--10----|
D----12------10s12--------12------------------12------------12------------------|
A-------------------------------------------------------------------------------|
E-------------------------------------------------------------------------------|

E---13b----13--13------------------------------------------------------------------------|
B-----------------------13b15b17b18b15b---17-----------------------------------------|
G----------------------------------------------------------------------------------------|
D----------------------------------------------------------------------------------------|
A----------------------------------------------------------------------------------------|
E----------------------------------------------------------------------------------------|
[ Tab from: http://www.guitartabs.cc/tabs/k/korn/another_brick_in_the_wall_tab_ver_2.html ]
E-----------10--------------------------------------------------------------------------|
B-------10------13p10-------------------------------------------------------------------|
G---12-------------------12b14b12p1012p10----10--------------------------------------|
D-------------------------------------------------------------------12----12------------|
A---------------------------------------------------------------------------------------|
E---------------------------------------------------------------------------------------|

E--------------------------------------------------------------------------------------|
B--------------------------------------------------------------------------------------|
G--12---10-----------------------------------------------------------------------------|
D--12---10-----------------------------------------------------------------------------|
A--------------12----10----10---8------------------------8-----------------------------|
E---------------------------------------10p8---10---10-------10p8---10-----------------|

E------------------------------------------------------------------------------------|
B--------------------5h6p5---------------------------------------6b------------------|
G---------5----7-------------7------7p5------5----5---7p5----------------------------|
D----7--------------------------------------7----------------------------------------|
A------------------------------------------------------------------------------------|
E------------------------------------------------------------------------------------|

E-----------------------------------------15b---13-----------------13---------------|
B----13b----13b---15b---17b--13----------------15-------15--------15----------------|
G-----------------------------------------------------------------------------------|
D-----------------------------------------------------------------------------------|
A-----------------------------------------------------------------------------------|
E-----------------------------------------------------------------------------------|


E---17b15b----17b----15b17b----------15b-----18b----20----20b---------------------|
B-------------------------------------------15b-------------------------------------|
G-----------------------------------------------------------------------------------|
D-----------------------------------------------------------------------------------|
A-----------------------------------------------------------------------------------|
E-----------------------------------------------------------------------------------|

E--22---20-p--17--20--17------------------------------------------------------------|
B-------------------------------------------------------------------12---12---------|
G--------------------------------10---10---10--------------------12---12------------|
D-------------------------------------------------12--------------------------------|
A-------------------------------------------------------10--10----------------------|
E-----------------------------------------------------------------------------------|

E--10---------------------|
B--10---------------------|
G-------------------------|
D-------------------------|
A-------------------------|
E-------------------------|

Well that's the whole version of korn's cover of another brick in the wall. it's very 
the solo will take some time though. good luck and if you find any mistakes then your 
to edit it.but I still cant believe korn called the album Greatest hits it sounds so
Korny!and old! peace out
Comments