Korn - Another Brick In The Wall Chords & Tabs

 

Another Brick In The Wall Chords & Tabs

Korn Chords & Tabs

Version: 1 Type: Bass Tab 0 ratings
1 star 2 stars 3 stars 4 stars 5 stars
comments

Another Brick In The Wall Bass Tab

Band- Korn
Song- Another Brick In The Wall
Album- Greatest Hits Vol.1
Tuning- Drop D

(Scream)
G-|----------------------|
D-|----------------------|
A-|----------------------|
D-|-5--------------------|

We don't need no education

G-|----------------------|
D-|----------------------|
A-|----------------------|
D-|-0--------------------|

We dont need no thoughts control

G-|----------------------------|
D-|----------------------------|
A-|-------3--5---5--3--0---3---|
D-|---0------------------------|

No dark sarcasm in the classroom
G-|--------------------------|
D-|--------------------------|
A-|-----3--5---5--3--0---3---| x2
D-|-0------------------------|

Teachers leave them kids alone
G-|-----------------------------------------------------|
D-|-----------------------------------------------------|
A-|-----3--5---5--3-------------------------------------| 
D-|-0----------------7---5---5----5----5--5--5---5--7---|

    Hey! Teachers! Leave them kids alone!
G-|------------------------|
D-|------------------------|
A-|------------------------|
D-|-5----5--5--5---5---7---|

G-|--------------------------|
D-|--------------------------|
A-|-----3--5---5--3--0---3---| 
D-|-0------------------------|

All in all it's just another brick in the wall
G-|------------------------------|
D-|------------------------------|
A-|-------------------3----------|
D-|---5---------5/7---------5----|

G-|--------------------------|
D-|--------------------------|
A-|-----3--5---5--3--0---3---| 
D-|-0------------------------|

All in all you're just another brick in the wall
G-|-----------------------------|
D-|-----------------------------|
A-|-------------------3---------|
D-|---5---------5/7---------5---|

We don't need no education

G-|----------------------|
D-|----------------------|
A-|----------------------|
D-|-0--------------------|

We dont need no thought control
[ Tab from: http://www.guitartabs.cc/tabs/k/korn/another_brick_in_the_wall_btab.html ]
G-|-------------------|
D-|-------------------|
A-|-------3--5---3/---|
D-|---0---------------|

No dark sarcasm in the classroom
G-|--------------------------|
D-|--------------------------|
A-|-----3--5---5--3--0---3---| x2
D-|-0------------------------|

Teachers leave them kids alone
G-|-----------------------------------------------------|
D-|-----------------------------------------------------|
A-|-----3--5---5--3-------------------------------------| 
D-|-0----------------7---5---5----5----5--5--5---5--7---|

Hey! Teachers! Leave them kids alone!
G-|------------------------|
D-|------------------------|
A-|------------------------|
D-|-5----5--5--5---5---7---|

G-|--------------------------|
D-|--------------------------|
A-|--5--3--5---5--3--0---3---| 
D-|--------------------------|

All in all you're just another brick in the wall
G-|------------------------------|
D-|------------------------------|
A-|-------------------3----------|
D-|---5---------5/7---------5----|

G-|--------------------------|
D-|--------------------------|
A-|-----3--5---5--3--0---3---| 
D-|-0------------------------|

All in all you're just another brick in the wall
G-|-----------------------------|
D-|-----------------------------|
A-|-------------------3---------|
D-|---5---------5/7---------5---|

G-|----------------------------|
D-|----------------------------|
A-|-------3--5---5--3--0---3---| 
D-|---0------------------------|

G-|----------------------------|
D-|----------------------------|
A-|---5---3--5---5--3--0---3---|
D-|----------------------------|

G-|------------------------------------------------|
D-|------------------------------------------------|
A-|-------3--5---5--3--5---5--3--5---5--3--0---3---| x7
D-|---0--------------------------------------------|

G-|----------------------------------------------|
D-|----------------------------------------------|
A-|---5--3--5----5-------------------------------|
D-|----------------------------------------------|

ENJOY!!!!and check my guitar version of this song!!
Comments