Korn - Alone I Break Chords & Tabs

 

Alone I Break Chords & Tabs

Korn Chords & Tabs

Version: 4 Type: Tab 0 ratings
1 star 2 stars 3 stars 4 stars 5 stars
comments

Alone I Break Tab

   
Artist: Korn
Song: Alone I Break
Tabber: michael angelo b. tindugan
email: lekym_l337Crew@yahoo.com
Tuning: 7 string 1 1/2 down  G# C# F# B E G# C#

Intro: 
C#|-----------------------------------------------------------------------|
G#|-----------------------------------------------------------------------|
E |-----------------------------------------------------------------------|
B |-----------------------------------------------------------------------|
F#|--------7--7--------7--7--------8--8-----7---7-7-------7--7-------8--8-|
C#|-----------------------------------------------------------------------|
G#|--0--0--------0--0--------0--0--------0-----------0--0-------0--0------|
pm.........................................................................

Verse:
C#|--------------------------------------------------|
G#|------0------------------------0------------------|
E |----------------5----------------------5----------|
B |--------------------------------------------------|
F#|--5--------3----------0----5--------3-------0-----|
C#|--------------------------------------------------|
G#|--------------------------------------------------|

Pre-Chorus:
C#|------------------------------------------------------------------------|
G#|------------------------------------------------------------------------|
E |------------------------------------------------------------------------|
B |------------------------------------------------------------------------|
F#|------------------------------------------------------------------------|
C#|-----------5--5--6--7--------7--7----5-----------5-5-6-7--------7-7---5-|
G#|-0-0---0---------------0--0--------------0-0--0-----------0--0----------|

C#|-------------------------------------------------------------------|
G#|-------------------------------------------------------------------|
E |-------------------------------------------------------------------|
B |-------------------------------------------------------------------|
F#|-------------------------------------------------------------------|
C#|-----------5--5--6--7--------7--7---5--------5-5-6-7------5-5-7-7--|
G#|-0---0--0--------------0--0-----------0-0-0-----------0-0----------|

C#|---------------------------------------------------------------------|
G#|---------------------------------------------------------------------|
E |--4--4--4--4--4---4--4---4--4---4------------------------------------|
B |-------------------------------------7--7--7--7--7---7--7---7--7---7-|
F#|--2--2--2--2--2---2--2---2--2---2------------------------------------|
C#|-------------------------------------5--5--5--5--5---5--5---5--5---5-|
G#|---------------------------------------------------------------------|
[ Tab from: http://www.guitartabs.cc/tabs/k/korn/alone_i_break_tab_ver_4.html ]
C#|---------------------------------------------------------------------|
G#|---------------------------------------------------------------------|
E |--4--4--4--4--4---4--4---4--4---4------------------------------------|
B |-------------------------------------7--7--7--7--7---7--7---7--7---7-|
F#|--2--2--2--2--2---2--2---2--2---2------------------------------------|
C#|-------------------------------------5--5--5--5--5---5--5---5--5---5-|
G#|---------------------------------------------------------------------|

Chorus: Guitar 1
C#|---------------------------------------------------------------------|
G#|---------------------------------------------------------------------|
E |--4--4--4--4--4---4--4---4--4---4----7--7--7--7--7---7--7---7--7---7-|
B |---------------------------------------------------------------------|
F#|--2--2--2--2--2---2--2---2--2---2----5--5--5--5--5---5--5---5--5---5-|
C#|---------------------------------------------------------------------|
G#|---------------------------------------------------------------------|

        Guitar 2
C#|-----------------------12--------------12---------12------10----9----10---|
G#|-12-----------------------------------------------------------------------|
E |--------------------------------------------------------------------------|
B |--------------------------------------------------------------------------|
F#|--------------------------------------------------------------------------|
C#|--------------------------------------------------------------------------|
G#|--------------------------------------------------------------------------|

Chorus: (continued) Guitar 1
C#|--------------------------------------------------------------------------|
G#|--------------------------------------------------------------------------|
E |--------------------------------------------------------------------------|
B |--7--7--7--7--7----7--7----7--7-----7----5--5--5--5--5----5--5---5--5---5-|
F#|--------------------------------------------------------------------------|
C#|--5--5--5--5--5----5--5----5--5-----5----3--3--3--3--3----3--3---3--3---3-|
G#|--------------------------------------------------------------------------|

Bridge: Guitar 1
C#|--14------------------------------12-----11-------|
G#|--12----------7-----5-------------13-----12-------|
E |--13----------4-----4-------------12-----11-------|
B |--14----------------------------------------------|
F#|--------------------------------------------------|
C#|--------------------------------------------------|
G#|--------------------------------------------------|

Bridge: Guitar 2
C#|------------------------10/12---------------------|
G#|------------------------10/12---------------------|
E |--------------------------------------------------|
B |--------------------------------------------------|
F#|--------------------------------------------------|
C#|--------------------------------------------------|
G#|--------------------------------------------------|
Comments