Korn - All In The Family Chords & Tabs

 

All In The Family Chords & Tabs

Korn Chords & Tabs

Version: 1 Type: Tab 0 ratings
1 star 2 stars 3 stars 4 stars 5 stars
comments

All In The Family Tab

   
        GUITAR TABLATURE ONLINE

          URL: www.angelfire.com/bc/tablature
	EMAIL: tablature@canada.com

 ----------------------------------------------------------------------------------------------

	     SONG: All In The Family
	     BAND: Korn
	    ALBUM: Follow The Leader
   TRANSCRIBED BY: James Frazzetto
	     DATE: Unknown

 ----------------------------------------------------------------------------------------------

	TUNING: tune your guitar down one full step (A,D,G,C,F,A,D)


     INTRO:  (whammy-wah preset 29 - lowers pitch 1 octave)

    D|-----0--0--------5------|
    A|-----7--7--------6---0--|
    F|---------------------5--|
    C|------------------------|
    G|------------------------|
    D|--2--------2--2---------|
    A|--0--------0--0---------|
       pm       pm...

     FILL 1:

    D|-----0--0-------------
    A|-----7--7-------------
    F|----------------------
    C|----------------------
    G|----------------------
    D|--2---------2--2---2--
    A|--0---------0--0---0--
       pm        pm...

     VERSE 1 AND 2: (guitar 1) Artificial Harmonics

     ~~~~~~~~~~~~  ~~~~~~~~  ~~~~~~~ ~~~~~~~ ~~~~~~ ~~~~~ ~~~~~~~
    D|--7(12)-------6(11)-----------|---------5(10)--4(9)---------|
    A|------------------------5(10)-|-4(9)-----------------3(8)---|
    F|------------------------------|-----------------------------|
    C|------------------------------|-----------------------------|
    G|------------------------------|-----------------------------|
    D|------------------------------|-----------------------------|
    A|------------------------------|-----------------------------|

     VERSE 1 AND 2: (guitar 2) clean tone w/ wah pedal
[ Tab from: http://www.guitartabs.cc/tabs/k/korn/all_in_the_family_tab.html ]
    D|----------------------------------|
    A|--12-x-x-x----12-x--x-x-x-x--x--x-|
    F|--12-x-x-x----12-x--x-x-x-x--x--x-|
    C|----------------------------------|
    G|----------------------------------|
    D|----------------------------------|
    A|----------------------------------|

     FILL 2:

    D|-----------|---------------|
    A|-----------|--12-12--12-12-|
    F|-----------|--12-12--12-12-|
    C|-----------|---------------|
    G|-----------|---------------|
    D|-----------|---------------|
    A|-----------|---------------|

     PRECHORUS 1 AND 2: (guitar 1)

        ~~~~~~~~~~~~~~~~~~~~~~
    D|--------------------------------------|
    A|--------------------------19-20-19-20-|
    F|--18--18--18--18--18--18--------------|
    C|--------------------------------------|
    G|--------------------------------------|
    D|--------------------------------------|
    A|--------------------------------------|
   
     PRECHORUS 1 AND 2: (guitar 2)

    D|--------------------------|
    A|--------------------------|
    F|--------------------------|
    C|--------------------------|
    G|--------------------------|
    D|--4--4--4--4--2--2--5--5--|
    A|--2--2--2--2--0--0--3--3--|

     FILL 3:

    D|-------------------------------------------|
    A|-------------------------------------------|
    F|-------------------------------------------|
    C|--5--(5)/6\5--5/17\15\5--(5)/6\5--(5)/17\--|
    G|-------------------------------------------|
    D|--5--(5)/6\5--5/17\15\5--(5)/6\5--(5)/16\--|
    A|-------------------------------------------|

     RIFF 9:
     
    D|-----0--0---------------|-----------------------------|
    A|-----7--7-----------7^r-|-(7)^(7)-(7)^(7)-(7)^(7)^(7)-|
    F|------------------------|-----------------------------|
    C|------------------------|-----------------------------|
    G|------------------------|-----------------------------|
    D|--2--------2--2--2------|-----------------------------|
    A|--0--------0--0--0------|-----------------------------|
       pm       pm......



Comments