Korn - Alive Chords & Tabs

 

Alive Chords & Tabs

Korn Chords & Tabs

Version: 1 Type: Tab 0 ratings
1 star 2 stars 3 stars 4 stars 5 stars
comments

Alive Tab

Alive - talitm
Korn

Intro/ End riff:
d--------------------------------------------------
a--------------------------------------------------
f--------------------------------------------------
c--12-12-12-12-12-12-12-12-12-12-12-12-13-13-13-13-
  -11-11-11-11-11-11-11-11-11-11-11-11-11-11-11-11-      distortion
g--------------------------------------------------
d--------------------------------------------------
a--------------------------------------------------

Verse:
d-----------------------------------------
a-----------------------------------------
f-----------------------------------------
c-----------------------------------------
g-----------------------------------------
d--4-4----4-4---4-4-3--4-4----------------
a--2-2----2-2---2-2-1--2-2----------------
[ Tab from: http://www.guitartabs.cc/tabs/k/korn/alive_tab.html ]
Pre-chorus:
d---------------------------------------------
a---------------------------------------------
f---------------------------------------------
c---------------------------------------------
g--4----3-3-3-3-3-4----4----3-3-3-3-3-3-4----4
d--4----3-3-3-3-3-4----4----3-3-3-3-3-3-4----4
a--2----1-1-1-1-1-2----2----1-1-1-1-1-1-2----2

Chorus:
d----------------------------------------------
a----------------------------------------------
f----------------------------------------------
c--2-----------------5------4--------3---------
g--2--------2--------5------4--------3---------
d--0--------2--------3------2--------1---------
a-----------0----------0-0---------------------

Bridge:
d--------------------------------------------------------
a--------------------------------------------------------
f--------------------------------------------------------
c--------------------------------------------------------
g---4--------4--------4--------4--------4----------------
d---4--------4--------4--------4--------4----------------
a---2--------2--------2--------2--------2---2--2-2--2-2-2














Comments