Korn - Adidas Chords & Tabs

 

Adidas Chords & Tabs

Korn Chords & Tabs

Version: 5 Type: Tab 0 ratings
1 star 2 stars 3 stars 4 stars 5 stars
comments

Adidas Tab

A.D.I.D.A.S - Guitar Tab 
 
Transcribed: Fernando Delgado
Peos verdes +++++++++++++++++++++++++++++++++++++++++++++++ 
-------------------------------------------------------------- 
 
BEND HALF - ^ 
BEND FULL - F 
HAMMER ON - H 
PULL OFF - P 
 
RIFF #1 
W/ FLANGER 
D--^^--^---^^--^-^--| 
A--000000--00000-0--| 
F--333333--33333-3--| 
C-------------------| 
G-------------------| 
D---------------0---| 
A---------------0---| 
 
 
RIFF #2 
W/ HEAVY DISTORTION 
D------------------------------------------| 
A------------------------------------------| 
F--------------------5\4----5---5\4--------| 
C--------------------5\4----5---5\4--------| 
G-3/4--5/4-----------5\4----5---5\4--------| 
D-1/2--3/2--4/5------3\2----3---3\2--------| 
A-----------2/3----------------------------| 
 
 
RIFF #3 
W/ HEAVY DISTORTION 
D------------------------------------------| 
A------------------------------------------| 
F-----------------------5\4-------4--------| 
C-----------------------5\4-------3--------| 
G--3/4--5\4-------------5\4-------4--------| 
D--1/2--3\2----4/5------3\2-------2--------| 
A--------------2/3-------------------------| 
 
 
RIFF #4 
W/ DISTORTION "ALL Day I ....." 
D-----------------------------------------------------------------------------------0---| 
A------5\4----------------------7-------8------------5\4-----4------------7---------0---| 
F------x------------------------x-------x------------x-------x------------x---------0---| 
C------2\1-------------2--------4-------5------------2\1-----1----2--2----4-------------| 
G----------------------3-----------------------------3\2----------3--3------------------| 
D----------------------3------------------------------------------3--3------------------| 
A-0------------0-------1----------------------0-------------------1--1------------------| 
- 
 
RIFF #5 
W/ For this korn used a recording technique but try wit flanger 
D--------------------------------F-----------| 
A-------------F--------9---9----11-----------| 
F----9-8------8------------------------------| 
C------------------------9-------------------| 
G-6-------6------7---------------------------| 
D-7-------7------8---------------------------| 
A--------------------------------------------| 
 
 
RIFF #6 
W/ HEAVY DISTORTION 
D-----------------------------------------------------| 
A-------------^---------------------------------------| 
F-------------3---------------------------------------| 
D-----------------------------------------------------| 
A-3--2-----3-----2-----3-3------3---------------------|  
D-3--2-----3-----2-----3-3------3-----6-6--6-5-4-4----| 
A-1--0-----1-----0-----1-1------1-----4-4--4-3-2-2----| 
 
 
SONGFLOW 
RIFF #1 (6X) 
RIFF #2 (1X) 
RIFF #1 (4X) 
RIFF #3 (1x) 
RIFF #4 (4X) 
RIFF #5 (4X) 
RIFF #6 (4X) 
RIFF #4 (8X)
[ Tab from: http://www.guitartabs.cc/tabs/k/korn/adidas_tab_ver_5.html ]
Comments