Kool And The Gang - Jungle Boogie Chords & Tabs

 

Jungle Boogie Chords & Tabs

Kool And The Gang Chords & Tabs

Version: 1 Type: Tab 0 ratings
1 star 2 stars 3 stars 4 stars 5 stars
comments

Jungle Boogie Tab

--------------
Jungle Boogie
--------------
From Kool & The Gang album "Wild & Peaceful"
Tab by Matt Clark, Matt.Clark@umit.maine.edu

[ Tab from: http://www.guitartabs.cc/tabs/k/kool_and_the_gang/jungle_boogie_tab.html ]
Guitar - Left Speaker - beginning part and is in most of the song too                                            
|---------------------------------------------------------------------|
|---------------------------------------------------------------------|
|-x-x-12--x-x-12--x-x-x-x-12-12----x-x-12--x-x-12--x-x-12-12-12-------|
|-x-x-12--x-x-12--x-x-x-x-12-12----x-x-12--x-x-12--x-x-12-12-12-------|
|-x-x-10--x-x-10--x-x-x-x-10-10----x-x-10--x-x-10--x-x-10-10-10-------|
|---------------------------------------------------------------------|


Bass and Horns
|----------------------------3-3-0-0-2-3-0----------------------------|
|----------------------3-4-----------------4-3-0----------------------|
|-----1-1------1-3-4-5---------------------------4-3------------------|
|-3-3-----1--3--------------------------------------------------------|


Them
==
Comments